Sex Pistols - Pretty Vacant Chords & Tabs

 

Pretty Vacant Chords & Tabs

Sex Pistols Chords & Tabs

Version: 3 Type: Tab 0 ratings
1 star 2 stars 3 stars 4 stars 5 stars
comments

Pretty Vacant Tab

   
Intro Riff  -  Repeated as heard

e|----------------------------|----------------------
B|----------------------------|----------------------
G|----------2--2--------------|--------2-2-----------
D|----------------------2--2--|------------------2-2-
A|----0--0--------0--0--------|--0-0-------0-0-------
E|----------------------------|----------------------
[ Tab from: http://www.guitartabs.cc/tabs/s/sex_pistols/pretty_vacant_tab_ver_3.html ]
Verse - Listen to track for timing etc
e|----------------------------------------------------
B|------------5---9-----------------------------------
G|------------5---9-------9---------------------------
D|----7---5---5---9---5---9---------------------------
A|----7---5---7---7---5---7---------------------------
E|----5---3-----------3-------------------------------

Chorus - Again listen for formation
e|-------------------------------------------------
B|-------------------------------------------------
G|----7---5----------------------------------------
D|----7---5---7------------------------------------
A|----5---3---7------------------------------------
E|------------5------------------------------------


    Amaj    Gmaj    Dmaj    Emaj    Cmaj
e|---5---|---3---|-------|-------|-------|
B|---5---|---3---|---7---|---9---|---5---| Full Chords 
G|---6---|---4---|---7---|---9---|---5---| used through
D|---7---|---5---|---7---|---9---|---5---| the track
A|---7---|---5---|---5---|---7---|---3---|
E|---5---|---3---|-------|-------|-------|
Comments