Sex Pistols - Pretty Vacant Chords & Tabs

 

Pretty Vacant Chords & Tabs

Sex Pistols Chords & Tabs

Version: 2 Type: Bass Tab 0 ratings
1 star 2 stars 3 stars 4 stars 5 stars
comments

Pretty Vacant Bass Tab

   
Pretty Vacant
By The Sex Pistols
Tabbed by Sean Harvey
standard tunning EADG

This is the most accurate one out there.
It may look confusing, but it makes sense. 
Please rate me!

Riff 1
G|----------------|----------------|
D|----------------|----------------|
A|0-0-0-0-0-0-0-0-|0-0-0-0-0-0-0-0-|
E|----------------|----------------|
  1 + 2 + 3 + 4 +  1 + 2 + 3 + 4 + 

Riff 2
G|----------------|
D|----------------|
A|----------------|
E|0-0-0-0-0-0-0-0-|
  1 + 2 + 3 + 4 +  
[ Tab from: http://www.guitartabs.cc/tabs/s/sex_pistols/pretty_vacant_btab_ver_2.html ]
verse
G|----------------|----------------|----------------|----------------|
D|----------------|0---0-0---------|----------------|----------------|
A|0---0-0---------|--------0---0-0-|----------------|----------------|
E|--------3---3-3-|----------------|3-3-3-3-3-3-3-3-|0-0-0-0-0-0-0-0-|
  1 + 2 + 3 + 4 +  1 + 2 + 3 + 4 +  1 + 2 + 3 + 4 +  1 + 2 + 3 + 4 + 

Chorus riff
G|----------------|----------------|
D|0-0-0-0-0-0-0-0-|----------------|
A|----------------|3-3-3-3-3-3-3-3-|
E|----------------|----------------|
  1 + 2 + 3 + 4 +  1 + 2 + 3 + 4 +   

interlude
G|----------------|----------------|
D|0-0-0-0-0-0-0-0-|2---------------|
A|----------------|----------------|
E|----------------|----------------|
  1 + 2 + 3 + 4 +  1 + 2 + 3 + 4 + 

Order:
Rest 4 measures
Riff 1 X2
Verse X2
Riff 2
Riff 1
Chorus
Riff 1
Chorus
riff 1
Verse X2
Riff 2
Riff 1
Chorus
Riff 1
Chorus
riff 1
interlude
Riff 1
Verse X2
Riff 2
Riff 1
Chorus
Riff 1
Chorus
Riff 1
Chorus
Riff 1
interlude

End on
G|----------------|
D|----------------|
A|0---------------|
E|----------------|
  1 + 2 + 3 + 4 + 

well thats it so far enjoy!
Comments