Sex Pistols - No Feelings Chords & Tabs

 

No Feelings Chords & Tabs

Sex Pistols Chords & Tabs

Version: 3 Type: Tab 0 ratings
1 star 2 stars 3 stars 4 stars 5 stars
comments

No Feelings Tab

Sex Pistols-No feelings
alexguitargodbudny@hotmail.com

Tuning Standard but out of tune.

^=half step bend  
pm=palm mute
h=hammer on
p=pull off
=slide down
~=vibrato
3=triplet
/
/=same chord being strummed
  Intro 
  E |----------------------------------------|
  B |----------------------------------------|
  G |----------------------------------------|
  D |------------3-3---5-5-------------------|
  A |3-3---5-5---1-1---3-3-------------------|2x
  E |1-1---3-3-------------------------------|

  E |----------------------------------------|
  B |----------------------------------------|
  G |----------------------------------------|
  D |10/-///-//-////-//-////-x---------------|
  A |-8/-///-//-////-//-////-x8//////--------|
  E |-------------------------6//////--------|


Verse 
  E |----------------------------------------|
  B |----------------------------------------|
  G |----------------------------------------|
  D |1010-----------1010----------1010-------|
  A |8-8--8-8-8-8-8-8-8-8-8-8-8-8-8-8--------|
  E |----------------------------------------|
          pm.......     pm.......
  
  E |----------------------------------------|
  B |----------------------------------------|
  G |----------------------------------------|
  D |--1010---101010101010-------------------|
  A |8-8-8--8-8-8-8-8-8-8--------------------|
  E |----------------------------------------|
    pm     pm
  
  E |-------------------------------------------------|
  B |-------------------------------------------------|
  G |-------------------------------------------------|
  D |--------------------------------5-5-5-5-5-5-5-5-5|
  A |8-8-8-8-8-8-8---5-5-5-5-5-5-5---3-3-3-3-3-3-3-3-3|
  E |6-6-6-6-6-6-6-0-3-3-3-3-3-3-3-0------------------|
[ Tab from: http://www.guitartabs.cc/tabs/s/sex_pistols/no_feelings_tab_ver_3.html ]
Verse  
  
Chorus
  E |----------------------------------------|
  B |----------------------------------------|
  G |3-/-/-/-/-/-/-/-5-/-/-/-/-/-/-/---------|
  D |3-/-/-/-/-/-/-/-5-/-/-/-/-/-/-/---------|
  A |1-/-/-/-/-/-/-/-3-/-/-/-/-/-/-/---------|x3
  E |----------------------------------------|
                                        
                                        Fill 1
  E |----------------------------------------|
  B |----------------------------------------|
  G |10--------------3-----------------------|
  D |10--------------3-------5---------------|
  A |8---------------1-------5---------------|
  E |------------------------3---------------|

Verse x2
Fill 1
   
  Gtr 1                                 Riff 1
  E |----------------------------------------|
  B |----------------------------------------|
  G |--------3-------5-----------------------|
  D |3-------3-------5-----------------------|
  A |3-------1-------3-----------------------|x4
  E |1---------------------------------------|

  Gtr 2  over Riff 1
  E |----------------------------------------|
  B |----------------------------------------|
  G |-------------------------9-9h10p9-------|
  D |--------3-3-----55-5555----------12-10--|
  A |3-3-----1-1-----33-3333-----------------|
  E |1-1-------------------------------------|

  E |----------------------------------------|
  B |----------------------------------------|
  G |--------------------------5-5~----------|
  D |--------3-3-----55-5555-----------------|
  A |3-3-----1-1-----33-3333-----------------|
  E |1-1-------------------------------------|

  E |----------------------------------------|
  B |----------------------------------------|
  G |--------------------------7-7-7-7-7-----|
  D |--------3-3-----55-5555-----------------|
  A |3-3-----1-1-----33-3333-----------------|
  E |1-1-------------------------------------|

  E |----------------------------------------|
  B |----------------------------------------|
  G |--------------------------7-7-7-7-7-9~--|
  D |--------3-3-----55-5555-----------------|
  A |3-3-----1-1-----33-3333-----------------|
  E |1-1-------------------------------------|
Comments