Sex Pistols - No Feelings Chords & Tabs

 

No Feelings Chords & Tabs

Sex Pistols Chords & Tabs

Version: 2 Type: Tab 0 ratings
1 star 2 stars 3 stars 4 stars 5 stars
comments

No Feelings Tab

-------------------------------------------------------------------------------
			     No Feelings - Sex Pistols
-------------------------------------------------------------------------------

Tabbed by: Matt B
Email:mattb1987@wowmail.com

Tuning: Standard 

Intro:
[ Tab from: http://www.guitartabs.cc/tabs/s/sex_pistols/no_feelings_tab_ver_2.html ]
e|-----------------------------|
B|-----------------------------|
G|-----------------------------|
D|---3---5-5---8-8--10-10------|
A|---3---5-5---8-8--10-10------|
E|---1---3-3---6-6---8--8------|

e|-----------------------------|
B|-----------------------------|
G|-----------------------------|
D|---3-3---5-5---8-8--10-10----|
A|---3-3---5-5---8-8--10-10----|
E|---1-1---3-3---6-6---8--8----|
Comments