Sex Pistols - No Feelings Chords & Tabs

 

No Feelings Chords & Tabs

Sex Pistols Chords & Tabs

Version: 1 Type: Tab 0 ratings
1 star 2 stars 3 stars 4 stars 5 stars
comments

No Feelings Tab

   
Sex Pistols 
No Feelings
Nevermind The Bolloks
RODRIGO DIAZ


INTRO
e|-----------------------------|
B|-----------------------------|
G|-3-3-3---------3-3-3--5-5-5--|
D|-3-3-3--5-5-5--3-3-3--5-5-5--|
A|-3-3-3--5-5-5--1-1-1--3-3-3--|
E|-1-1-1--3-3-3----------------|

FIRST PART (NO SINGING)
e|--------------------------------------------------------------------|
B|--------------------------------------------------------------------|
G|-10--10-10-10--10--10-10----10--10-10-10--10--10-10-----------------|
D|-10--10-10-10--10--10-10----10--10-10-10--10--10-10--8--8-8-8-8-8---|
A|--8---8--8--8---8---8--8-----8---8--8--8---8---8--8--8--8-8-8-8-8---|
E|-----------------------------------------------------6--6-6-6-6-6---|

VERSE                                           2 TIMES 
e|-----------------------------------------------------|
B|-----------------------------------------------------|
G|-10--10-10-10--10--10-10----10--10-10-10--10--10-10--|
D|-10--10-10-10--10--10-10----10--10-10-10--10--10-10--|
A|--8---8--8--8---8---8--8-----8---8--8--8---8---8--8--|
E|-----------------------------------------------------|
[ Tab from: http://www.guitartabs.cc/tabs/s/sex_pistols/no_feelings_tab.html ]
e|---------------------------------------------------------|
B|---------------------------------------------------------|
G|-------------------------------5--5-5-5-4-5-5-5-4-5-5-5--|
D|-8--8--8-8-8---5--5-5-5-5-5-5--5--5-5-5-4-5-5-5-4-5-5-5--|
A|-8--8--8-8-8---5--5-5-5-5-5-5--3--3-3-3-2-3-3-3-2-3-3-3--|
E|-6--6--6-6-6---3--3-3-3-3-3-3----------------------------|


CHORUS 3 TIMES (No feelings)
e|----------------------------------------|
B|----------------------------------------|
G|-3--3-3-3-3-3--5--5-5-5-5-5-5-----------|
D|-3--3-3-3-3-3--5--5-5-5-5-5-5-----------|
A|-1--1-1-1-1-1--3--3-3-3-3-3-3-----------|
E|----------------------------------------|


CHORUS SECOND PART (for anybody else except for myself my 
beautiful self dear)

e|--------------------------------------------------------------------|
B|--------------------------------------------------------------------|
G|-10--10-10-10--10--10-10----10--10-10-------------------------------|
D|-10--10-10-10--10--10-10----10--10-10--8-8--3-3--3-3----------------|
A|--8---8--8--8---8---8--8-----8---8--8--8-8--3-3--3-3----------------|
E|---------------------------------------6-6--1-1--1-1----------------|

VERSE


AND THE SOLO CHORDS ARE 

F G D



Comments