Sex Pistols - Holidays In The Sun Chords & Tabs

 

Holidays In The Sun Chords & Tabs

Sex Pistols Chords & Tabs

Version: 1 Type: Bass Tab 0 ratings
1 star 2 stars 3 stars 4 stars 5 stars
comments

Holidays In The Sun Bass Tab

HOLIDAY IN THE SUN - Sex Pistols

Tabbed By: Rotten Punk

Intro:
G|---------------------------------------------------------------------------|
D|---------------------------------------------------------------------------|
A|---------------------------------------------------------------------------|
E|-10-----10-----10-----10---------------------------------------------------|

Intro2: X4  (Last Time, Let Last Note Ring)
G|---------------------------------------------------------------------------|
D|---------------------------------------------------------------------------|
A|---------------------------------------------------------------------------|
E|-8-8-7-7-5-5-5-3-3-3-3-3-3-3-3---------------------------------------------|

Verse: X4
G|---------------------------------------------------------------------------|
D|---------------------------------------------------------------------------|
A|---------------------------------------------------------------------------|
E|-3-3-3-3-3-3-3-3-3-3--3-3-5-7-8-7-3----------------------------------------|

Pre Chorus: X2
G|---------------------------------------------------------------------------|
D|------------------------------------0-0-0-0-0-0-0-0-0-0-0-0-0-0-0-0--------|
A|-3-3-3-3-3-3-3-3-3-3-3-3-3-3-3-3-------------------------------------------|
E|---------------------------------------------------------------------------|
[ Tab from: http://www.guitartabs.cc/tabs/s/sex_pistols/holidays_in_the_sun_btab.html ]
Chorus: X4
G|---------------------------------------------------------------------------|
D|---------------------------------------------------------------------------|
A|-The-Berlin--Wall!---------------------------------------------------------|
E|--------------------8-8-7-7-5-5-5-3-3-3-3-3-3-3----------------------------|

Verse

Chorus

Bridge:X4
G|---------------------------------------------------------------------------|
D|---------------------------------------------------------------------------|
A|-0-0-0-0-0-0-0-0-5-5-5-5-5-5-5-5-------------------------------------------|
E|---------------------------------------------------------------------------|

Solo Background:
G|---------------------------------------------------------------------------|
D|---------------------------------------------------------------------------|
A|-5-5-5-5-5-5-5-5-5-5-5-5-5-5-5-5-5-5-5-------------------------------------|
E|---------------------------------------------------------------------------|

Outro: X14
G|---------------------------------------------------------------------------|
D|---------------------------------------------------------------------------|
A|---------------------------------------------------------------------------|
E|-8-8-7-7-5-5-5-3-3-3-3-----------------------------------------------------|

Questions Or Comments, Or Corrections, E-Mail Me At 

Antiamerica15@aol.com
Comments