Sex Pistols - God Save The Queen Chords & Tabs

 

God Save The Queen Chords & Tabs

Sex Pistols Chords & Tabs

Version: 2 Type: Tab 6 ratings
1 star 2 stars 3 stars 4 stars 5 stars
comments

God Save The Queen Tab

Music X Tabs [http://www.mxtabs.net]
God Save the Queen by Sex Pistols
This is a very easy song but would u please rate?

Normal Tuning

Intro:

e------------------------------------------------------------------------------------------I
B------------------------------------------------------------------------------------------I
G-13/14-14-14--14-14------13/14-14-14--14-14------13/14-14-14--13/14-14-14--13/14-14-14-14-I
D-13/14-14-14--14-14------13/14-14-14--14-14------13/14-14-14--13/14-14-14--13/14-14-14-14-I
A-11/12-12-12--12-12------11/12-12-12--12-12------11/12-12-12--11/12-14-14--11/12-12-12-12-I
E------------------------------------------------------------------------------------------I

e-------------------I--------------------------------I
B-------------------I--------------------------------I
G-------7--6--6/7---I--------------------------------I
D-7*----7--6--6/7---I-6/7-7-7-7-7-------6/7-7-7-7-7--I
A-7*----5--4--4/5---I-6/7-7-7-7-7-------6/7-7-7-7-7--I
E-5*----------------I-4/5-5-5-5-5-------4/5-5-5-5-5--I
    PLAY THIS X3                THEN THIS

*LET RING


Verse Riff:
[ Tab from: http://www.guitartabs.cc/tabs/s/sex_pistols/god_save_the_queen_tab_ver_2.html ]
e----------------------------I-------------------------------I
B----------------------------I-------------------------------I
G-------------------7--6--7--I-------------------------------I
D-7-7-7-7-7-7-7-7---7--6--7--I-6/7-7-7-7-7-------6/7-7-7-7-7-I
A-7-7-7-7-7-7-7-7---5--4--5--I-6/7-7-7-7-7-------6/7-7-7-7-7-I
E-5-5-5-5-5-5-5-5------------I-4/5-5-5-5-5-------4/5-5-5-5-5-I
  pm pm pm pm pm                        RIFF ENDING


Chorus:

e------------------------------------------------------------I
B------------------------------------------------------------I
G-9--9-----------8/9-9-9--8/9-9-9---9--9-----------9-9---9---I
D-9--9--9-9-9-9--8/9-9-9--8/9-9-9---9--9--9-9-9-9--9-9---9---I
A-7--7--9-9-9-9--6/7-7-7--6/7-7-7---7--7--9-9-9-9--7-7---7---I
E-------7-7-7-7---------------------------7-7-7-7------------I


After Choruses:

e-------------------I----------------------------------------I
B-------------------I----------------------------------------I
G-------7--6--6/7---I------------9-9-9-9-9-------------------I
D-7*----7--6--6/7---I-7-7-7-7-7--9-9-9-9-9--7-7-7-7-7--------I
A-7*----5--4--4/5---I-7-7-7-7-7--7-7-7-7-7--7-7-7-7-7--------I
E-5*----------------I-5-5-5-5-5-------------5-5-5-5-5--------I
    PLAY THIS X2                   THEN PLAY THIS

Thats all except for the solo. Please rate...

Comments