Sex Pistols - God Save The Queen Solo Chords & Tabs

 

God Save The Queen Solo Chords & Tabs

Sex Pistols Chords & Tabs

Version: 1 Type: Tab 1 rating
1 star 2 stars 3 stars 4 stars 5 stars
comments

God Save The Queen Solo Tab

Song: God Save the Queen
Band: Sex Pistols 
Album: Never mind the Bullocks, here's the Sex Pistols
Tabbed by: FelixThaPunkCat000

This song is played by two guitars who both play the same, but not in rythm. that's why it sounds 
so sloppy. I think the song sounds best when you only play downstrokes and if you slide from 
chord to chord. I know this is a much tabbed song but none of the tabs I found had the solo 
tabbed out and most of them were very confusing. 
_________________________________________________________________________________________________  
Intro
-----
e|-----------------|----------|-----------------
B|-----------------|----------|-----------------
G|-----------------|----------|-----------------
D|-6/7--7-7--7-7-7-|-6/7--7-7-|-6/7--7-7--7-7-7-
A|-6-7--7-7--7-7-7-|-6/7--7-7-|-6/7--7-7--7-7-7-
E|-4/5--5-5--5-5-5-|-4/5--5-7-|-4/5--5-5--5-5-5-
		  2x	     2x

Pre verse
------------
e|----------------------|-----------------
B|----------------------|-----------------
G|------------7-7-7-6-7-|-----------------
D|-7-7-7--7-7-7-7-7-6-7-|-6/7--7-7--7-7-7-
A|-7-7-7--7-7-5-5-5-4-5-|-6/7--7-7--7-7-7-
E|-5-5-5--5-5-----------|-4/5--5-5--5-5-5-
		       3x		  2x

Verse I
-------
e|-------------------------|-----------------
B|-------------------------|-----------------
G|---------------7-7-7-6-7-|-----------------
D|-7-------------7-7-7-6-7-|-6/7--7-7--7-7-7-
A|-7-7-7-7-7-7-7-5-5-5-4-5-|-6/7--7-7--7-7-7-
E|-5-5-5-5-5-5-5-----------|-4/5--5-5--5-5-5-
    \__________/       	  3x		    2x
	pm

Chorus
------
e|---------------------------------------------
B|---------------------------------------------
G|-9-9-----8-8/9-9/8-8/9-9--9-9-----9-9-9--9-9-
D|-9-9-9-9-8-8/9-9/8-8/9-9--9-9-9-9-9-9-9--9-9-
A|-7-7-9-9-6-6/7-7/6-6/7-7--7-7-9-9-7-7-7--7-7-
E|-----7-7----------------------7-7------------
[ Tab from: http://www.guitartabs.cc/tabs/s/sex_pistols/god_save_the_queen_solo_tab.html ]
Bridge
------
e|----------------------|----------------------------------------------------------
B|----------------------|----------------------------------------------------------
G|------------7-7-7-6-7-|------------9-9-9-9-9-9-9-9-------------------------------
D|-7-7-7--7-7-7-7-7-6-7-|-7-7--7-7-7-9-9-9-9-9-9-9-9-7-7--7-7-7-7-7-7-7-7-7-----5b-
A|-7-7-7--7-7-5-5-5-4-5-|-7-7--7-7-7-7-7-7-7-7-7-7-7-7-7--7-7-7-7-7-7-7-7-7--------
E|-5-5-5--5-5-----------|-5-5--5-5-5-----------------5-5--5-5-5-5-5-5-5-5-5--------
		       3x		  2x

Verse II = Verse I
------------------
Chorus
-------
Bridge
------
Solo
-----
e|-----------------------------------|----------------------------12---12---12----------
B|-----------------------------------|----------------9-10-10-9-9----9----9-------------
G|-----------------------------------|-----------------------------------------9-9-9b\--
D|-11-11-11-11-11p9---9-11-11-9-11-9-|-11-11-11-11-11-----------------------------------
A|-9--9--9--9------9--9-9--9--9-9--9-|-9--9--9--9--9------------------------------------
E|-----------------------------------|--------------------------------------------------

Bridge
------
Outro (no future...)
------
e|-----------------|----------------------------
B|-----------------|----------------------------
G|-7-x-7--6-6--4-4-|----------------------------
D|-7-x-7--6-6--4-4-|-7-7-7--7-7-7--7-7-7--7-7-7-
A|-5-x-5--4-4--2-2-|-7-7-7--7-7-7--7-7-7--7-7-7-
E|-----------------|-5-5-5--5-5-5--5-5-5--5-5-5-
		  3x
\______________________________________________/
			3x                         
and end with this...
e|-----------------|----------|-----------------
B|-----------------|----------|-----------------
G|-----------------|----------|-----------------
D|-6/7--7-7--7-7-7-|-6/7--7-7-|-6/7--7-7--7-7-7-
A|-6-7--7-7--7-7-7-|-6/7--7-7-|-6/7--7-7--7-7-7-
E|-4/5--5-5--5-5-5-|-4/5--5-7-|-4/5--5-5--5-5-5-
		  2x	     2x      

this is the little riff played by the second guitar at the end of the song

e|---------
B|---------
G|-9p7-----
D|----9-7--
A|---------
E|---------

that's it
Comments