Sex Pistols - God Save The Queen Chords & Tabs

 

God Save The Queen Chords & Tabs

Sex Pistols Chords & Tabs

Version: 1 Type: Bass Tab 2 ratings
1 star 2 stars 3 stars 4 stars 5 stars
comments

God Save The Queen Bass Tab

   

GOD SAVE THE QUEEN

G---------------------------------------------------------------------------------------
D---------------------------------------------------------------------------------------
A-11-12-12-12-12-12-12-12-11-12-12-12-12-12-12-11-12-12-11-12-12-11-12-12-12-12-12-12-12
E---------------------------------------------------------------------------------------


                x3
G----------------------|
D----------------------|
A-0---------------5-4-5|
E----------------------|

G---------------------------------
D---------------------------------
A---------------------------------
E-4-5-5-5-5-5-5-5-4-5-5-5-5-5-5-5-


VERSE:


                           x3
G--------------------------
D--------------------------
A-0-0-0-0-0-0-0-0-5-5-5-4-5
E--------------------------

G---------------------------------
D---------------------------------
A---------------------------------
E-4-5-5-5-5-5-5-5-4-5-5-5-5-5-5-5-

                           x3
G--------------------------
D--------------------------
A-0-0-0-0-0-0-0-0-5-5-5-4-5
E--------------------------
[ Tab from: http://www.guitartabs.cc/tabs/s/sex_pistols/god_save_the_queen_btab.html ]
G---------------------------------
D---------------------------------
A---------------------------------
E-4-5-5-5-5-5-5-5-4-5-5-5-5-5-5-5-

CHORUS:

G--------------------------------------
D--------------------------------------
A-7-7-7------6-7-7-7-6-7-7-7-7-7-7-----
E------7-7-7----------------------7-7-7

SOLO:
                                x3
G-------------------------------
D-4-4-4-4-4-4-4-4---------------
A----------------2-2-2-2-2-2-2-2
E-------------------------------

G-------------------------------
D-4-4-4-4-4-4-4-4-2-2-2-2-2-2-2-
A-------------------------------
E-------------------------------

OUTRO
                 x3
G----------------
D----------------
A-5-5-5-5-4-4-2-2
E----------------

G----------------
D----------------
A-0-0-0-0-0-0-0-0
E----------------

                 x3
G----------------
D----------------
A-5-5-5-5-4-4-2-2
E----------------

G----------------
D----------------
A-0-0-0-0-0-0-0-0
E----------------

                 x3
G----------------
D----------------
A-5-5-5-5-4-4-2-2
E----------------

G-----------------------------------------------
D-----------------------------------------------
A-----------------------------------------------
E-4-5-5-5-5-5-5-5-4-5-5-5-5-5-5-4-5-5-5-5-5-5-5-



Comments