Sex Pistols - Bodies Chords & Tabs

 

Bodies Chords & Tabs

Sex Pistols Chords & Tabs

Version: 2 Type: Tab 0 ratings
1 star 2 stars 3 stars 4 stars 5 stars
comments

Bodies Tab

#----------------------------------PLEASE NOTE---------------------------------#
#This file is the author's own work and represents their interpretation of the #
#song. You may only use this file for private study, scholarship, or research. #
#------------------------------------------------------------------------------#

Song title:  Bodies
Artists:  The Sex Pistols
Submitted by: Egg Man


Intro

E----------------------------------------------
B----------------------------------------------
G----------------------------------------------
D------------0---------------------------------   x4
A------7-----------7---------------------------
E---0-----0-----0----0--0----------------------


Verse

E--------------------------------------------------------------
B--------------------------------------------------------------
G---3/4--3/4-3/4-----------------------------------------------  
D---3/4--3/4-3/4-----------------------------------------------  x4
A---1/2--1/2-1/2-2-2-2-----------------------------------------
E--------------------------------------------------------------
[ Tab from: http://www.guitartabs.cc/tabs/s/sex_pistols/bodies_tab_ver_2.html ]
E--------------------------------------------------------------
B--------------------------------------------------------------
G------------------------3/4-3/4-3/4-4-4-4---------------------
D--3/4--3/4--3/4-4-4-4---3/4-3/4-3/4-4-4-4---------------------  x2
A--3/4--3/4--3/4-4-4-4---1/2-1/2-1/2-2-2-2---------------------
E--1/2--1/2--1/2-2-2-2-----------------------------------------


Chorus

E--------------------------------------------------------------------
B--------------------------------------------------------------------
G-------------------------------------7-7-7-7-7-7-7-7-7-7-7-7-7-7-7-7
D---5-5-5-5-5-5-5-5--7-7-7-7-7-7-7-7--7-7-7-7-7-7-7-7-7-7-7-7-7-7-7-7
A---5-5-5-5-5-5-5-5--7-7-7-7-7-7-7-7--5-5-5-5-5-5-5-5-5-5-5-5-5-5-5-5
E---3-3-3-3-3-3-3-3--5-5-5-5-5-5-5-5---------------------------------
                                  x2  
                            
But on the second time you play the chorus; at the end of it play:

E---------------------------
B---------------------------
G-----------3-3-3-3-3-3-3-3-
D--5/7-5/7--3-3-3-3-3-3-3-3-     until you start the third Verse
A--5/7-5/7--5-5-5-5-5-5-5-5-
E--3/5-3/5------------------
Comments