Sex Pistols - Bodies Chords & Tabs

 

Bodies Chords & Tabs

Sex Pistols Chords & Tabs

Version: 2 Type: Bass Tab 0 ratings
1 star 2 stars 3 stars 4 stars 5 stars
comments

Bodies Bass Tab

----------------------------------------------------------------------------
			     BODIES - Sex Pistols
----------------------------------------------------------------------------

Tabbed By : guitarguy_13
e-mail: tom_gooding@hotmail.co.uk

Tuning: Standard

Intro

G|-----------------|-----------------|-------0---------|-----------------|
D|---2---0-----2---|---2---0-----2---|---2---------2---|---2---0-----2---|
A|-----------------|-----------------|-----------------|-----------------|
E|-0---0----0----0-|-0---0----0----0-|-0---0----0----0-|-0---0----0----0-|
[ Tab from: http://www.guitartabs.cc/tabs/s/sex_pistols/bodies_btab_ver_2.html ]
Verse
              
G|-------------------------------------|-----------------------------------|
D|-------------------------------------|-----------------------------------|
A|-------------------------------------|-----------------------------------|
E|-5-7-7-7-5-7-7-7-5-7-7-7-7-7-7-7-7---|-0-2-2-2-0-2-2-20-2-2-2-0-2-2-2---|

Then 1st bit once then 2nd bit again then 1st bit once more then

Chorus

G|-------------------------------|
D|-------------------------------|
A|----------------45554555455555-|
E|-33333335555555----------------|

Post-Chorus

G|-----------------------------------------|
D|-----------------------------------------|
A|-455545555-------------45554555----------|
E|------------45554555------------45554555-|

Its not a hard song so you can work out the order you lazy bums!!

============================================================================
Comments