Sex Pistols - Anarchy In The Uk Chords & Tabs

 

Anarchy In The Uk Chords & Tabs

Sex Pistols Chords & Tabs

Version: 7 Type: Tab 0 ratings
1 star 2 stars 3 stars 4 stars 5 stars
comments

Anarchy In The Uk Tab

This is an awesome song and probably the best punk song there is.
This is my first tab so and i borrowes some from the other ones.
Tuning: Standard
~=vibrato
guitar should be distorted
try to have all chords downstrokes
try also to play with cd for the rythyms

E-------------------------------------------------------------------------|
B-------------------------------------------------------------------------|
G--12-12-12-12-12-12-12-12-12-12-12-12-12-12----10-10-10-10-10-10-10-10---|
D--10-10-10-10-10-10-10-10-10-10-10-10-10-10-----8--8--8--8--8--8--8--8---|
A--10-10-10-10-10-10-10-10-10-10-10-10-10-10-----8--8--8--8--8--8--8--8---|
E-------------------------------------------------------------------------|


E----------------|
B----------------|
G---9---7---5----|
D---9---7---5----|
A---7---5---3----|
E----------------|

Verse (Repeat this 4 times)
E-----------------------------------|
B-----------------------------------|
G---5-5-5-5-5-5-5-5-5-5-5-10-9------|
D---5-5-5-5-5-5-5-5-5-5-5-10-9------|
A---3-3-3-3-3-3-3-3-3-3-3--8-7------|
E-----------------------------------|

Chorus
E------------------------------------------------------------------------|
B------------------------------------------------------------------------|
G---12-12-12-12-12-12-12-12-12-12-12-12-12-12-10-10-10-10-10-10-10-10----|
D---12-12-12-12-12-12-12-12-12-12-12-12-12-12-10-10-10-10-10-10-10-10----|
A---10-10-10-10-10-10-10-10-10-10-10-10-10-12--8--8--8--8--8--8--8--8----|
E------------------------------------------------------------------------|

E-------------------------------------------------------------------------|
B-------------------------------------------------------------------------|
G---9---7---5-5-5-5-5-5-5-5-5-5-5-10-9-5-5-5-5-5-5-5-5-5-10-10-10-10-10-10|
D---9---7---5-5-5-5-5-5-5-5-5-5-5-10-9-5-5-5-5-5-5-5-5-5-10-10-10-10-10-10|
A---7---5---3-3-3-3-3-3-3-3-3-3-3--8-7-3-3-3-3-3-3-3-3-3--8--8--8--8--8--8|
E-------------------------------------------------------------------------|


Verse (Repeat this 4 times)
E-----------------------------------|
B-----------------------------------|
G---5-5-5-5-5-5-5-5-5-5-5-10-9------|
D---5-5-5-5-5-5-5-5-5-5-5-10-9------|
A---3-3-3-3-3-3-3-3-3-3-3--8-7------|
E-----------------------------------|


Chorus
E------------------------------------------------------------------------|
B------------------------------------------------------------------------|
G---12-12-12-12-12-12-12-12-12-12-12-12-12-12-10-10-10-10-10-10-10-10----|
D---12-12-12-12-12-12-12-12-12-12-12-12-12-12-10-10-10-10-10-10-10-10----|
A---10-10-10-10-10-10-10-10-10-10-10-10-10-12--8--8--8--8--8--8--8--8----|
E------------------------------------------------------------------------|

E-------------------------------------------------------------------------|
B-------------------------------------------------------------------------|
G---9---7---5-5-5-5-5-5-5-5-5-5-5-10-9-5-5-5-5-5-5-5-5-5-10-10-10-10-10-10|
D---9---7---5-5-5-5-5-5-5-5-5-5-5-10-9-5-5-5-5-5-5-5-5-5-10-10-10-10-10-10|
A---7---5---3-3-3-3-3-3-3-3-3-3-3--8-7-3-3-3-3-3-3-3-3-3--8--8--8--8--8--8|
E-------------------------------------------------------------------------|

Guitar Solo 1

[ Tab from: http://www.guitartabs.cc/tabs/s/sex_pistols/anarchy_in_the_uk_tab_ver_7.html ]
E------------------------------------------------|
B--13-13-13-10~~~-15-15-15-12~~~-----------------|
G------------------------------------------------| repeat 3X
D------------------------------------------------|
A------------------------------------------------|
E------------------------------------------------|

E-------------------------------------------------------|
B--13-13-13-10~~~-15-15-15-15~-15-15-15--15-15-15-15~~~~|
G-------------------------------------------------------|
D-------------------------------------------------------|
A-------------------------------------------------------|
E-------------------------------------------------------|

Verse (Repeat this 4 times)
E-----------------------------------|
B-----------------------------------|
G---5-5-5-5-5-5-5-5-5-5-5-10-9------|
D---5-5-5-5-5-5-5-5-5-5-5-10-9------|
A---3-3-3-3-3-3-3-3-3-3-3--8-7------|
E-----------------------------------|


Chorus
E------------------------------------------------------------------------|
B------------------------------------------------------------------------|
G---12-12-12-12-12-12-12-12-12-12-12-12-12-12-10-10-10-10-10-10-10-10----|
D---12-12-12-12-12-12-12-12-12-12-12-12-12-12-10-10-10-10-10-10-10-10----|
A---10-10-10-10-10-10-10-10-10-10-10-10-10-12--8--8--8--8--8--8--8--8----|
E------------------------------------------------------------------------|

E-------------------------------------------------------------------------|
B-------------------------------------------------------------------------|
G---9---7---5-5-5-5-5-5-5-5-5-5-5-10-9-5-5-5-5-5-5-5-5-5-10-10-10-10-10-10|
D---9---7---5-5-5-5-5-5-5-5-5-5-5-10-9-5-5-5-5-5-5-5-5-5-10-10-10-10-10-10|
A---7---5---3-3-3-3-3-3-3-3-3-3-3--8-7-3-3-3-3-3-3-3-3-3--8--8--8--8--8--8|
E-------------------------------------------------------------------------|


Guitar Solo 2(repeat 4X)
E------------------------------------------------|
B------------------------------------------------|
G------------------------------------------------|
D-16-16-16-14-14-16--17-16-14-14-16-16-----------|
A------------------------------------------------|
E------------------------------------------------|

Chorus(repeat this 4x)
E------------------------------------------------------------------------|
B------------------------------------------------------------------------|
G---12-12-12-12-12-12-12-12-12-12-12-12-12-12-10-10-10-10-10-10-10-10----|
D---12-12-12-12-12-12-12-12-12-12-12-12-12-12-10-10-10-10-10-10-10-10----|
A---10-10-10-10-10-10-10-10-10-10-10-10-10-12--8--8--8--8--8--8--8--8----|
E------------------------------------------------------------------------|

E-------------------------------------------------------------------------|
B-------------------------------------------------------------------------|
G---9---7---5-5-5-5-5-5-5-5-5-5-5-10-9-5-5-5-5-5-5-5-5-5-10-10-10-10-10-10|
D---9---7---5-5-5-5-5-5-5-5-5-5-5-10-9-5-5-5-5-5-5-5-5-5-10-10-10-10-10-10|
A---7---5---3-3-3-3-3-3-3-3-3-3-3--8-7-3-3-3-3-3-3-3-3-3--8--8--8--8--8--8|
E-------------------------------------------------------------------------|

E---------|
B---------|
G-5-------|
D-5-------|
A-3-------|
E---------|
let it ring for as long as it can(try also to get feedback for this)

there it is this is my first tab so if you find any mistakes tell me or any suggestions
Comments