Sex Pistols - Anarchy In The Uk Chords & Tabs

 

Anarchy In The Uk Chords & Tabs

Sex Pistols Chords & Tabs

Version: 6 Type: Tab 0 ratings
1 star 2 stars 3 stars 4 stars 5 stars
comments

Anarchy In The Uk Tab


this is a relatively easy song to play and you really only have to know one chord.
this is the most accurate tab i've seen.....
 
Intro           
                 Right now!     hahahahahahahaha
e-----------------------------------------------------------|x2
B-----------------------------------------------------------|palm mute on 
G--101010101010101010101010101010----8-8-8-8-8-8-8-8--9-7-5-|               
D--101010101010101010101010101010----8-8-8-8-8-8-8-8--9-7-5-|               
A--121212121212121212121212121212---1010101010101010--7-5-3-|the 2nd time
E-----------------------------------------------------------|

Verse
e--------------------------------------------|
B--------------------------------------------|
G--55-0-555-0-555\10-9--55-0-555-0-555\10-9--|
D--55-0-555-0-555\10-9--55-0-555-0-555\10-9--|
A--33-0-333-0-333\8--7--33-0-333-0-333\8--7--|
E--------------------------------------------|

   I am an anti-christ / i am an anarchist
   don't know what i / but i know how to get 
   want                it
   i wanna destroy..... / passer-by 

Chorus
e--------------------------------------------------------|
B--------------------------------------------------------|
G-101010101010101010101010101010101010---8-8-8-8-8-8-8-8-|
D-101010101010101010101010101010101010---8-8-8-8-8-8-8-8-|
A-121212121212121212121212121212121212--1010101010101010-|
E--------------------------------------------------------|

  I___________________________ wanna be_________________

e----------------------------------------------|
B----------------------------------------------|
G-55-0-555-0-555\10-9--55-0-555-0-555\10-9-----|
D-55-0-555-0-333\10-9--55-0-555-0-555\10-9-----|
A-33-0-333-0-333\8--7--33-0-333-0-333\8--7-----|
E----------------------------------------------|

    Anarchy__________  no dogs body





verse 2
 anarchy for the uk / it's coming sometime,maybe
 i give the wrong time / stop a traffic line
 your future dream is a shopping scheme
 
verse 3
 there are many ways to get what you want 
 i use the best / i use the rest
 i use the enemy / i use anarchy
[ Tab from: http://www.guitartabs.cc/tabs/s/sex_pistols/anarchy_in_the_uk_tab_ver_6.html ]
Verse 4
 is this the MPLA?
 or is this the UDA?
 i thought it was th UK
 or just another country
 another council tennancy

Solo
E|-----12-----------------|-----14-------------------|
B|-/13----13----------13/-|-/15----15------15----11/-|
G|-----------14~------14/-|-/16-------16~--16-16-12/-|
D|------------------------|--------------------------|
A|------------------------|--------------------------|
E|------------------------|--------------------------|


E|-----12-----------------|-----14-------------------|
B|-/13----13-------13-----|--------15------------11/-|
G|-/14-------14~---14-14/-|-/16-------16~--16\10-12/-|
D|------------------------|--------------------------|
A|------------------------|--------------------------|
E|------------------------|--------------------------|


E|-----12-----------------|-----14-------------------|
B|-/13----13-------13-13/-|-/15----15------15\---11/-|
G|-/14-------14~---14-14/-|-/16-------16~--16\---12/-|
D|------------------------|--------------------------|
A|------------------------|--------------------------|
E|------------------------|--------------------------|


E|-----12--------------------|-----------------------|
B|-/13----13-------13-13\----|----8-8~--/13----13-13-|
G|-/14-------14~---14-14\----|----7-7~------14-14-14-|
D|------------------------7/-|-/9--------------------|
A|---------------------------|-----------------------|
E|---------------------------|-----------------------|


E|------------------------------|-----------------|------------------|
B|-13-15-15-15~-----------------|-----5-3-5-3-----|-/3-----5-5-5-5---|
G|-14-16-16-16~-(16)/19-19\-0-4-|-5-7-5-4-5-4-0---|-/4-0---5-5-5-5---|
D|--------------------------0---|---------------0-|------0-----------|
A|------------------------------|-----------------|----------------0-|
E|------------------------------|-----------------|------------------|

outro
 i wanna be anarchy
 and i wanna be anarchy
 and i wanna be anarchy
 you know what i mean
 and i wanna be an anarchist
 i'm getting pissed
 DESTROY!
 
you could probably do some improvisation on the outro.
well there it is. i hope you enjoy it.
Comments