Sex Pistols - Anarchy In The Uk Chords & Tabs

 

Anarchy In The Uk Chords & Tabs

Sex Pistols Chords & Tabs

Version: 3 Type: Tab 0 ratings
1 star 2 stars 3 stars 4 stars 5 stars
comments

Anarchy In The Uk Tab

ARTIST:                       SEX PISTOLS
      
SONG:                    ANARCHY IN THE UK


ALUBUM:            NEVERMIND THE BULLOCKS HERES THE SEX PISTOLS
[ Tab from: http://www.guitartabs.cc/tabs/s/sex_pistols/anarchy_in_the_uk_tab_ver_3.html ]
                             INTRO
1---------------------------------------------------------------------------
2---------------------------------------------------------------------------
312-12-12-12-12-12-12-12-12-12-12-12-12-10-10-10-10-10-10-10-9-9-9-9-7-7-7-7 2X
312-12-12-12-12-12-12-12-12-12-12-12-12-10-10-10-10-10-10-10-9-9-9-9-7-7-7-7
5---------------------------------------------------------------------------
6---------------------------------------------------------------------------
                            BRIDGE
1----------------------------------------------------------------------------
2----------------------------------------------------------------------------
3-3-3-3-0-3-3-3-0-3-3-3-0-3-3-3-0-3-3-3-0------------------------------------1X
4-5-5-5-5-5-5-5-5-5-5-5-5-5-5-5-5-5-5-5-5------------------------------------
5----------------------------------------------------------------------------
6----------------------------------------------------------------------------
                         MAIN RIFF
1----------------------------------------------------------------------------
2----------------------------------------------------------------------------
3-3-3-3-3-3-3-3-3-5-5-5-5-3-3-3-3-3-3-3-3-5-5-5-5-3-3-3-3-3-3-3-3-5-5-5-5----TILL THE OUTRO
4-5-5-5-5-5-5-5-5-7-7-7-7-5-5-5-5-5-5-5-5-7-7-7-7-5-5-5-5-5-5-5-5-7-7-7-7----
5----------------------------------------------------------------------------
6----------------------------------------------------------------------------
                       OUTRO
1----------------------------------------------------------------------------
2----------------------------------------------------------------------------
3-3-3-3-3-3-8--8--7-7--------------------------------------------------------
4-5-5-5-5-5-10-10-9-9--------------------------------------------------------
5----------------------------------------------------------------------------2X
6----------------------------------------------------------------------------


IF U HAVENT ALREADY NOTICE THE SOLO ISNT THERE BECAUSE I DONT NO IT .
IF N E ONE NO'S IT EMAIL ME AT DOWNSET15@AOL.COM AND IF U HAVE ANY QUESTIONS
Comments