Sex Pistols - Anarchy In The Uk Chords & Tabs

 

Anarchy In The Uk Chords & Tabs

Sex Pistols Chords & Tabs

Version: 1 Type: Tab 3 ratings
1 star 2 stars 3 stars 4 stars 5 stars
comments

Anarchy In The Uk Tab

   
Artist: Sex Pistols
Song Title: Anarchy in the U.K.


/= Slide Down
\= Slide Up
~= Let Ring


Intro:

E|----------------------------------------------------------------|
B|----------------------------------------------------------------|
G|--12-12-12-12-12-12-12-12-12~---10-10-10-10-10-10-10-10---9--8--|
D|--12-12-12-12-12-12-12-12-12~---10-10-10-10-10-10-10-10---9--8--|
A|--10-10-10-10-10-10-10-10-10~---8--8--8--8--8--8--8--8----7--6--|
E|----------------------------------------------------------------|

E|-----------------------------------------|
B|-----------------------------------------|
G|-----------------------------------------|
E|-5-5-5-5-5-5-5-5-5-5-5-5-5-5-5-5-5-5-5-5-|
B|-5-5-5-5-5-5-5-5-5-5-5-5-5-5-5-5-5-5-5-5-|
G|-3-3-3-0-3-3-3-0-3-3-3-0-3-3-3-0-3-3-3-0-|


Verse:
[ Tab from: http://www.guitartabs.cc/tabs/s/sex_pistols/anarchy_in_the_uk_tab.html ]
E|--------------------------------|\
B|--------------------------------| \
G|-5-5-5-5-5-5-5-5-5-5-5-5-/10--9-|  \  Play this 4 times
D|-5-5-5-5-5-5-5-5-5-5-5-5-/10--9-|  /
A|-3-3-3-3-3-3-3-3-3-3-3-3/-8---7-| /
E|--------------------------------|/


Chorus:

E|----------------------------------------------------|
B|----------------------------------------------------|
G|-12-12-12-12-12-12-12-12-12-12-12-12-12-12-12-12-12-|
D|-12-12-12-12-12-12-12-12-12-12-12-12-12-12-12-12-12-|
A|-10-10-10-10-10-10-10-10-10-10-10-10-10-10-10-10-10-|
E|----------------------------------------------------|

E|----------------------------------------------|
B|----------------------------------------------|
G|-10-10-10-10-10-10-10-10-10-10-10-10-10-10-10-|
D|-10-10-10-10-10-10-10-10-10-10-10-10-10-10-10-|
A|-8--8--8--8--8--8--8--8--8--8--8--8--8--8--8--|
E|----------------------------------------------|

E|-----------------------------------------|
B|-----------------------------------------|
G|-----------------------------------------|
D|-5-5-5-5-5-5-5-5-5-5-5-5-5-5-5-5-5-5-5-5-|
A|-5-5-5-5-5-5-5-5-5-5-5-5-5-5-5-5-5-5-5-5-|
E|-3-3-3-0-3-3-3-0-3-3-3-0-3-3-3-0-3-3-3-0-|


Verse
(above)

Chorus
(above)

Everythings here exept the Solo.
Comments