Seventh Day Slumber - When The Children Cry Chords & Tabs

 

When The Children Cry Chords & Tabs

Seventh Day Slumber Chords & Tabs

Version: 1 Type: Tab

When The Children Cry Tab

   
-----------------------------------------------------------------------------
	       When the Children Cry - Seventh Day Slumber
-----------------------------------------------------------------------------
Tabbed by: Max Andersen
Email: metalhead_7075@yahoo.ca

I'll have the rest of the song in a while.

Tuning: drop-D
[ Tab from: http://www.guitartabs.cc/tabs/s/seventh_day_slumber/when_the_children_cry_tab.html ]
e|------------------------0---0-----------------------------------|
B|---------------------------------------5/6----------------------|
G|---------5------------2---2---2--------4/5----------5---------5-|
D|-----3-----3---3----2------------------2/3-3-5----5---------5---|
A|---3---3-----3---0-----------------------------3------5h6h7-----|
D|-3------------------------------0--x-0--------------------------|

e|--------1------------------------------------|
B|-----------1----------5/6--------------------|
G|------3------3--------4/5------------5-------|
D|----3----3------------2/3-3-5------3---3---3-|
A|-1-------------------------------3-------3---|
D|---------------0--x-0---------3--------------|

e|------------------------------8---|
B|--------------------------5---5---|
G|------5---------5-------5---5-5---|
D|----5---------5---3/4/5-----------|
A|-3------5h6h7---------------------|
D|----------------------------------|

| /  slide up
| \  slide down
| h  hammer-on
| p  pull-off
| ~  vibrato
| +  harmonic
| x  Mute note
=============================================================================