Sevendust - Waffle Chords & Tabs

 

Waffle Chords & Tabs

Sevendust Chords & Tabs

Version: 5 Type: Tab 0 ratings
1 star 2 stars 3 stars 4 stars 5 stars
comments

Waffle Tab

   
"Waffle" By Sevendust
Album, HOME

By Part_Of_Me

The tuning is slightly altered from their usual tuning. 
It's also the same one used for "Trust" & "Licking Cream."
It's 1 & 1/2 steps down from standard plus dropped D, 
except the low string is tuned down an extra half step.
Low to High A#-F#-B-E-G#-C#


INTRO
Guitar 1 (Play scetion 2x)
C#--------------|--------------|--------------|------------           
G#--------------|--------------|--------------|------------ 
E------4------4-|-----4------4-|-----4------4-|----4-----4-
B----0------0---|---0------0---|---0------0---|---0----0---          
F#-4------4-----|-4------4-----|-4------4-----|-2----2-----          
A#--------------|--------------|--------------|------------
                                     (last bar may be ad-libbed)
Guitar 2
C#-------------|------------|-----------|--------------
G#-------------|------------|-----------|--------------
E--------------|------------|-----------|--------------
B----3----4----|------------|-----------|--3-----4-----
F#-------------|--4---------|--4--------|--------------
A#-------------|------------|-----------|--------------

Guitars 1&2
C#---------------------|-----------------------------------
G#---------------------|-----------------------------------
E----------------------|-----------------------------------
B----------------------|-----------------------------------
F#---------------------|-----------------------------------
A#--0----0-0-0-0---0-0-|--0----0-0-0-0---0-0---(7)-(7)-(7)-
 p.m. - - - - - - - - - - - - - - - - - - - -|

C#---------------------|-----------------------------------
G#---------------------|-----------------------------------
E----------------------|-----------------------------------
B----------------------|-----------------------------------
F#---------------------|-----------------------------------
A#--0----0-0-0-0---0-0-|--0----0-0-0-0---0-0---------------
 p.m. - - - - - - - - - - - - - - - - - - - -|


VERSE 1
Guitar 1 (Play intro sec. 3x).
Guitar 2 (w/ volume swells) 
C#-----------|-----------|--------------|-------------
G#-----------|-----------|--------------|-------------
E------------|-----------|--------------|-------------
B--3----6----|7----------|-4------------|-------------
F#-----------|-----------|--------------|-4-----------
A#-----------|-----------|--------------|-------------
[ Tab from: http://www.guitartabs.cc/tabs/s/sevendust/waffle_tab_ver_5.html ]
C#-----------|-----------|--------------|-------------
G#-----------|-----------|--------------|-------------
E------------|-----------|--------------|-------------
B--3----6----|7----------|-4------------|-------------
F#-----------|-----------|--------------|-4-----------
A#-----------|-----------|--------------|-------------

C#-----------|-----------|--------------
G#-----------|-----------|--------------
E------------|-----------|--------------
B--3----6----|7----------|-9------------
F#-----------|-----------|--------------
A#-----------|-----------|--------------

PRE-CHORUS 
Guitars 1&2
C#---------------------|-----------------------------------
G#---------------------|-----------------------------------
E----------------------|-----------------------------------
B----------------------|-----------------------------------
F#---------------------|-----------------------------------
A#--0----0-0-0-0---0-0-|--0----0-0-0-0---0-0---(7)-(7)-(7)-
 p.m. - - - - - - - - - - - - - - - - - - - -|
   "Whatever you say!"

C#---------------------|-----------------------------------
G#---------------------|-----------------------------------
E----------------------|-----------------------------------
B----------------------|-----------------------------------
F#---------------------|-----------------------------------
A#--0----0-0-0-0---0-0-|--0----0-0-0-0---0-0---------------
 p.m. - - - - - - - - - - - - - - - - - - - -|


CHORUS 
Guitars 1&2 (play section 2x)
C#------------------------------------------------
G#------------------------------------------------
E---4-6---4---------------------------------------
B-------------------------------------------------
F#--2-4---2---------------------------------------
A#------------4--5---1-1---1-1---1---1-1---1-1----
  "Bring me a light, make my life..."

C#------------------------------------------------
G#------------------------------------------------
E---4-6---4---------------------------------------
B-------------------------------3(<-bend)---------
F#--2-4---2---------------------3(<-bend)---------
A#------------4--5---1-1---1-1-----1---1-1---1-1--


VERSE 2
Guitars 1&2 - same as first verse

BRIDGE 
(You can do different variations of this riff).
C#---------------------------------------------------
G#---------------------------------------------------
E---4-6-6-6-6-6-6-4-4-4-4---------------------------- (play as
B---------------------------------------------------- needed)
F#--2-4-4-4-4-4-4-2-2-2-2----------------------------
A#-------------------------4-4-4-4-5-5-5-5-3-3-3-1-0-
   "When I'm all alone..."

FINAL CHORUS 
First use Pre-chorus section.
Afterwards use regular chorus section.

ENDING RIFF
Guitars 1&2
C#------------------------------------------------
G#------------------------------------------------
E---4-6---4---------------------------------------
B-------------------------------------------------
F#--2-4---2---------------------------------------
A#------------4--5---1-1---1-1---1---1-1----------


...on to Rumblefish!
Comments