Sevendust - Waffle Chords & Tabs

 

Waffle Chords & Tabs

Sevendust Chords & Tabs

Version: 4 Type: Tab 0 ratings
1 star 2 stars 3 stars 4 stars 5 stars
comments

Waffle Tab

tab: #----------------------------------PLEASE
NOTE--------------------------------#
#This file is the author's own work and represents their interpretation
of the#
#song. You may only use this file for private study, scholarship, or
research.#
#-----------------------------------------------------------------------------#

WAFFLE - Sevendust
Album: Home

This song was tabbed by: Gordon Huntley.

I know this tab isn't 100% correct so PLEASE send any suggestions or
comments 
to: semikorny_boy@hotmail.com

[ Tab from: http://www.guitartabs.cc/tabs/s/sevendust/waffle_tab_ver_4.html ]
Intro and Verse (guitar 1)
[they use some sort of pedal but since I have little to no knowledge of
pedals, 
I don't know what it is]
e|----------------------------------
B|----------------------------------
G|------2------2----------2------2--
D|----4------4----------4------4----
A|--2------2----------2------2------
E|----------------------------------

Intro and Verse (guitar 2)
Just use some feedback and play something like:
e|-------------
B|-------------
G|-------------
D|--6~~~~~~~~--
A|-------------
E|-------------

Heavy part: 0:20 and "whatever you say" part (both guitars)
e|--------------------------
B|--------------------------
G|--------------------------
D|--------------------------
A|--0/---0-0-0-0/---0-0/----
E|--0/---0-0-0-0/---0-0/----

Chorus: "bring me a life..."
e|----------------------------------------
B|----------------------------------------
G|----------------------------------------
D|--9--7--4--6--6/7-7---------------------
A|--x--x--x--x--x/x-x--0/---0-0/----0/----
E|--7--5--2--4--4/5-5--0/---0-0/----0/----

P.S. - anyone got a tab for "Old Enough" by Nickelback or "So Long" by
Everlast??!!

Comments