Sevendust - Waffle Chords & Tabs

 

Waffle Chords & Tabs

Sevendust Chords & Tabs

Version: 3 Type: Tab 0 ratings
1 star 2 stars 3 stars 4 stars 5 stars
comments

Waffle Tab

   
Name: Jonathan Bissonnette

Tabs: song: Waffle
Artist: Sevendust

I've never seen so many wrong tabs for an easy ass song!
Here is the real way to play it!

The tuning is B F# B E G# C#

Intro:

Gtr.1

C#|-------------|
G#|-----0-----0-|
E |---0-----0---|
B |-------------|
F#|-4------4----|
B |-------------|  x8

*Bass enters after x4

Gtr. 2

C#|------------------|
G#|------------------|
E |------------------|
B |------------------|
F#|-14~~~~~/12~~~~~~-|
B |------------------|

On the last time

Intro 2:

Both guitars

C#|-------------------|-----------------------------|
G#|-------------------|-----------------------------|
E |-------------------|-----------------------------|
B |-0---0-0-0-0---0-0-|-0-0---0-0-0-0---0-0---------|
F#|-0---0-0-0-0---0-0-|-0-0---0-0-0-0---0-0---------|
B |-0---0-0-0-0---0-0-|-0-0---0-0-0-0---0-0--*3-*3--| x2

Verse 1: Same as intro

Pre-chorus: same as intro 2

Chorus:

Both guitars

C#|----------------------------|
G#|----------------------------|
E |-6/4------------------------|
B |-6/4-3/4-4-4-4---0-----0--0-|
F#|-4/2-3/4-4-4-4---0-----0--0-|
B |-----3/4-4-4-4---0-----0--0-|

Verse 2:

gtr.1            gtr.2 after 4th time
[ Tab from: http://www.guitartabs.cc/tabs/s/sevendust/waffle_tab_ver_3.html ]
C#|-------------|----------------------------------------------|
G#|-----0-----0-|----------------------------------------------|
E |---0-----0---|----------------------------------------------|
B |-------------|----------------------------------------------|
F#|-4-----4-----|-14p12-12-14p12-12-14p12-12-14p12-12-14p12-12-|
B |-------------|----------------------------------------------|
              x8

Pre-chorus 2: same as other prechorus

chorus 2: same as chorus one

Bridge:

both guitars:

C#|-------------------------------------------------|
G#|-------------------------------------------------|
E |-4/6-6-6-6/4-4-4-4-------------------------------|
B |-------------------3-3-3-3/4-4-4-4-4-2-2-2p0-0-0-|
F#|-2/4-4-4-4/2-2-2-2-3-3-3-3/4-4-4-4-4-2-2-2p0-0-0-|
B |-------------------3-3-3-3/4-4-4-4-4-2-2-2p0-0-0-| x4


Pre-chorus 3: same as other pre-chorus' except it goes 4 times

Outro: 

both guitars

C#|---------------------|
G#|---------------------|
E |-6/4-----------------|
B |-6/4-3/4-4--0---0--0-|
F#|-4/2-3/4-4--0---0--0-|
B |-----3/4-4--0---0--0-| x4

End


if you want tabs to:
Slipknot
--------
Wait and Bleed
Purity
SIC
Surfacing
Liberate
Eyeless

Coal Chamber
------------
Loco
Big truck
Sway
First
I

Smashing Pumpkins
-----------------
Everlasting Gaze
Stand Inside Your Love

A Perfect Circle
----------------
The hollow
Judith
Orestes
3 Libras

Or ask me about others, I may know them!
Any questions? E-mail me at hoju_10@hotmail.com 
              
Comments