Sevendust - Waffle Chords & Tabs

 

Waffle Chords & Tabs

Sevendust Chords & Tabs

Version: 2 Type: Tab 0 ratings
1 star 2 stars 3 stars 4 stars 5 stars
comments

Waffle Tab

i promise you once again this song is more correct then the other
song on here!!!

dropped d tuning

repeat this once


------------------------------------------
------------------------------------------
-------4----------4---------4-----------4-
----0---------0---------0-----------0-----
-4--------4---------4-----------4---------
------------------------------------------
[ Tab from: http://www.guitartabs.cc/tabs/s/sevendust/waffle_tab_ver_2.html ]
------------------------------------
------------------------------------
-------4-------4--------4---------4-
----0------0---------0--------0-----
-2-------2--------2--------2--------
------------------------------------


p.m. through this riff


------------------------------------------------------
------------------------------------------------------
------------------------------------------------------
------------------------------------------------------
-0--0000--00---0--0000-00--3---0--0000--00--0--0000-00
-0--0000--00---0--0000-00--3---0--0000--00--0--0000-00
Comments