Sevendust - Trust Chords & Tabs

 

Trust Chords & Tabs

Sevendust Chords & Tabs

Version: 1 Type: Bass Tab 0 ratings
1 star 2 stars 3 stars 4 stars 5 stars
comments

Trust Bass Tab

Band- Sevendust
Song- Trust

Intro Part 1 (0:14)
G|-----------|-----------|-----------|-----------|
D|-----------|-----------|-----------|-----------|
A|-----------|-----------|-----------|-----------|
E|-1-1-1-----|-1-1-1-----|-1-1-1-----|-1-1-1-----|

Intro Part 2 (0:24)
G|-----------|-----------|-----------|-----------|
D|-----------|-----------|-----------|-----------|
A|-----------|-----------|-----------|-----------|
E|-1-1-1~~~--|-1-1-1-----|-1-1-1~~~--|-1-1-1-----|


Verse x5 (first one without lyrics) (0:35)
G|---------------------|---------------------|
D|---------------------|---------------------|
A|---------------------|---------------------|
E|-2---2-2-2--2--2-2-2-|-3---3-3-3--3--3-3-3-|

G|---------------------|---------------------|
D|---------------------|---------------------|
A|---------------------|---------------------|
E|-1---1-1-1--1--1-1-1-|-0---0-0-0--0--0-0-0-|


Pre-Chorus x2 (1:26)
G|-------------------------|-------------------------|
D|-------------------------|-------------------------|
A|-------------------------|-------------------------|
E|-1-1-1-1-1-1---1-1-1-1-1-|-1-1-1-1-1-1---1-1-1-1-1-|


Chorus (1:37)
G|---------------------|---------------------|
D|---------------------|---------------------|
A|---------------------|---------------------|
E|-3---3-3-3--3--3-3-3-|-3---3-3-3--3--3-3-3-|

  (and steal everything...)
G|---------------------|---------------------|
D|---------------------|---------------------|
A|-1---1-1-1--1--1-1-1-|-3---3-3-3--3--3-3-3-|
E|---------------------|---------------------|

G|---------------------|---------------------|
D|---------------------|---------------------|
A|-5-5-7-7-5-5-7-7-5577|-3---3-3-3--3--3-3-3-|
E|---------------------|---------------------|

  (i feel, with no solitude...)
G|---------------------|---------------------|
D|---------------------|---------------------|
A|-3---3-3-3--3--3-5-5-|-3---3-3-3--3--3-5-5-|
E|---------------------|---------------------|

G|---------------------|---------------------|
D|---------------------|---------------------|
A|-5---5-5-5--5--5-5-5-|-5---5-5-5--5--5-5-5-|
E|---------------------|---------------------|

Intro Part 2 (2:02)

Verse x4 (2:13) (bass is still the same in the 3rd and 4th times)

Pre-Chorus x2 (2:54)

Chorus (3:05)
[ Tab from: http://www.guitartabs.cc/tabs/s/sevendust/trust_btab.html ]
Bridge x2 (3:31)
Note: The gaps between the quadruplets of notes does not show
the timing, it is only there to show how many times you strum
each note.  You do each note 16 times.
G|---------------------|---------------------|
D|---------------------|---------------------|
A|---------------------|---------------------|
E|-2222-2222-2222-2222-|-3333-3333-3333-3333-|

G|---------------------|---------------------|
D|---------------------|---------------------|
A|---------------------|---------------------|
E|-1111-1111-1111-1111-|-0000-0000-0000-0000-|

Pre-Chorus x3 (3:51)

Chorus with Variations (4:07)
G|---------------|---------------|
D|---------------|---------------|
A|---------------|---------------|
E|-3-------------|-3-------------|

  (and steal everything...)
G|---------------|---------------|
D|---------------|---------------|
A|-1-------------|-3-------------|
E|---------------|---------------|

G|---------------------|---------------------|
D|---------------------|---------------------|
A|-5-5-7-7-5-5-7-7-5577|-3---3-3-3--3--3-3-3-|
E|---------------------|---------------------|

  (i feel, with no solitude...)
G|---------------------|---------------------|
D|---------------------|---------------------|
A|-3---3-3-3--3--3-5-5-|-3---3-3-3--3--3-5-5-|
E|---------------------|---------------------|

G|---------------------|---------------------|
D|---------------------|---------------------|
A|---------------------|---------------------|
E|-3---3-3-3--3--3-3-3-|-3---3-3-3--3--3-3-3-|

  (and steal everything...)
G|---------------------|---------------------|
D|---------------------|---------------------|
A|-1---1-1-1--1--1-1-1-|-3---3-3-3--3--3-3-3-|
E|---------------------|---------------------|

G|---------------------|---------------------|
D|---------------------|---------------------|
A|-5-5-7-7-5-5-7-7-5577|-3---3-3-3--3--3-3-3-|
E|---------------------|---------------------|

  (i feel, with no solitude...)
G|---------------------|---------------------|
D|---------------------|---------------------|
A|-3---3-3-3--3--3-5-5-|-3---3-3-3--3--3-5-5-|
E|---------------------|---------------------|

G|---------------------|---------------------|
D|---------------------|---------------------|
A|-5---5-5-5--5--5-5-5-|-5---5-5-5--5--5-5-5-|
E|---------------------|---------------------|

Outro x13 (4:53)
G|-------------|
D|-------------|
A|-------------|
E|-111-1-1-1---|
Comments