Sevendust - Toab Chords & Tabs

 

Toab Chords & Tabs

Sevendust Chords & Tabs

Version: 1 Type: Tab 0 ratings
1 star 2 stars 3 stars 4 stars 5 stars
comments

Toab Tab

   
Song: T.O.A.B. (tits on a boar) don't ask i didnt name the song
Artist: Sevendust

Drop D down 1 1/2 steps: B F# B E G# C# 

Intro/Chorus riff
C#----------------------------------------0--------------------------0--------0----------
G#----------------------------------------0--------------------------0--------0----------
E-----------------------------------------6--------------------------6--------6----------
B----------------------------------------------------------------------------------------
F#---------------------------------------------------------------------------------------
B-5-4-4-5-4-4-4--4-4-4-5-4-4-4 x3 then -0---0-0-0 x3 again then -0-0----0-0-0----0-0-0-0-
[ Tab from: http://www.guitartabs.cc/tabs/s/sevendust/toab_tab.html ]
the verse is just 4 muted notes on the low B then a bunch of ascending
pick scrapes, use a wah pedal. reapeats

PreChorus
        pm.........         pm.........
E--4-------------------4------------------
B--2-1--------------3--2-1--------------3-
F#-2-1--5-5-5-5-5-5-3--2-1--5-5-5-5-5-5-3-
B--2-1--5-5-5-5-5-5-3--2-1--5-5-5-5-5-5-3- etc.

Prebridge
Low
B-0-0--0--0-0-0--0-0 x4

Bridge/Outro

B--0-0--0--0-0-0--0-0---0-0--0--0-0-0--0-0---0-0--0--0-0-0--0-0---0-0--0--0-0-0--0-0-
F#-0-0--0--0-0-0--0-0---0-0--0--0-0-0--0-0---0-0--0--0-0-0--0-0---0-0--0--0-0-0--0-0-
B--0-0--0--0-0-0--0-0---0-0--0--0-0-0--0-0---0-0--0--0-0-0--0-0---0-0--0--0-0-0--0-0- x2

2nd time gtr 2 plays this

C#-x-x-x-7///-----x-x-x-9///-----x-x-x-7///-----x-x-x-9///-12///--
G#-x-x-x-x--------x-x-x-x--------x-x-x-x--------x-x-x-x-----x-----
B--x-x-x-4///-----x-x-x-6///-----x-x-x-4///-----x-x-x-6///--9///--

there you go, one of sevendusts EASIER songs, by a long shot
Comments