Sevendust - Suffocate Chords & Tabs

 

Suffocate Chords & Tabs

Sevendust Chords & Tabs

Version: 2 Type: Tab 0 ratings
1 star 2 stars 3 stars 4 stars 5 stars
comments

Suffocate Tab

artist: sevendust
song: suffocate
tuning: drop Bb (A#-F-A#-D#-G-C) low to high


Intro:
------------------------------------------------------------|
---8-8-8-8-8-8-6-6---8-8-8-8-8-8-3-3------------------------|
------------------------------------------------------------|
------------------------------------------------------------|
------------------------------------------------------------|
------------------------------------------------------------|
      x3                 4th
Intro pt 2
------------------------------------------------------------|
------------------------------------------------------------|
------------------------------------------------------------|
------------------------------------------------------------|
-5b--0-0-0---5b--0--0-0-0-0---------------------------------|
-----0-0-0-------0--0-0-0-0---------------------------------|

Verse:
---------------------------|---------------------------------|
---------------------------|---------------------------------|
---------------------------|---------------------------------|
--------------------------|----------------------------------|
---------------------------|---------------------------------|
--0--0-0--0-0--0-0--0-0-0-|--0--0-0--0-0--0-0--0-0-----------|
[ Tab from: http://www.guitartabs.cc/tabs/s/sevendust/suffocate_tab_ver_2.html ]
Pre-Chorus
-------------------------|-----------------------------------|
-------------------------|-----------------------------------|
-------------------------|-----------------------------------|
--8--------7-6-----6-5-|--8--------7-6-----6-5---------------|
--6--------5-4-----4-3-|--6--------5-4-----4-3---------------|
-----0--0-0-----0-0-----|-----0--0-0-----0-0-----------------|

Chorus:
-----------------------------------------------------------------------|
-----------------------------------------------------------------------|
-----------------------------------------------------------------------|
-----------------------------------------------------------------------|
-8-8-8-8-8-8-8-8-0-0-0-0-0-0-0-0-7-7-7-7-7-7-7-7-5-5-5-5-5-5-5-5-------|
-8-8-8-8-8-8-8-8-0-0-0-0-0-0-0-0-7-7-7-7-7-7-7-7-5-5-5-5-5-5-5-5-------|

Intro 2
Verse
Pre-chorus
Chorus
Bridge: Intro x2, then
------------------------------------------------------------|
------------------------------------------------------------|
------------------------------------------------------------|
------------------------------------------------------------|
-0-0--0--0-0---5~ ------------------------------------------|
-0-0--0--0-0------------------------------------------------|
Comments