Sevendust - Speak Chords & Tabs

 

Speak Chords & Tabs

Sevendust Chords & Tabs

Version: 1 Type: Tab 0 ratings
1 star 2 stars 3 stars 4 stars 5 stars
comments

Speak Tab

   
Band- Sevendust
Song- Speak

Tuning : B/F#/B/E/A/G

Chorus :
-----------------------------------|
----------4----------------7-7-----|
----------4--4--3----------7-7-----|
---2-2----2--4--3-----2-2--5-5-----|
---2-2-------2--1-----2-2----------|
---2-2----------------2-2----------|

----------------------------------------|
-----------4-----------------7--6--5----|
-----------4--4--3-----------7--6--5----|
---2-3-2---2--4--3-----2-2---5--4--3----|
---2-3-2------2--1-----2-2--------------|
---2-3-2---------------2-2--------------|

Pre-Verse 1:
-----------------------------|
------6-6-----6/7\6-6/7\6----|
-----------------------------|
---4-------4-----------------|
-----------------------------|
-----------------------------|

Verse 1:
----------------------------------------------------------------------|
-----6------6------6------6-----------4--------4-------4-------4------|
-------6------6------6------6-------5--------5-------5-------5--------|
---4-----4------4------4----------------------------------------------|
---------------------------------3--------3-------3--------3----------|
----------------------------------------------------------------------|
[ Tab from: http://www.guitartabs.cc/tabs/s/sevendust/speak_tab.html ]
-------------------------------------------------------------------|
---------4-------4-------4-----------4-------4-------4-------4-----|
-------2-------2-------2-----------5-------5-------5-------5-------|
-------------------------------------------------------------------|
---2-0------0-------0-------0-2-3-------3-------3-------3----------|
-------------------------------------------------------------------|

Pre-chorus:
------------------------------------------------------|
------------------------------------------------------|
---11-11-12-11---11-12-11---9-9-10-9---9-10-9---7-5---|
---9--9--9--9----9--9--9----7-7-7--7---7-7--7---5-3---|
---9--9--9--9----9--9--9----7-7-7--7---7-7--7---5-3---|
---9--9--9--9----9--9-9----7-7-7--7---7-7--7---5-3---|

Pre-verse 2:
gtr1 plays verse 1
gtr2:
-------------------------------------------------------------------------------------|
-----------------------------------6h7p6-4---4-2-4-----------------------------------|
--------------------------------------------------------------------0----------------|
-4-----4-4---4h5p4---2-2-0-4h5p4-2------------------------------0-2----4h5p4---2-2-0-|
---4-3-----3-----------------------------------------2h3p2-2-------------------------|
-------------------------------------------------------------------------------------|

Verse 2 :
-----------------------------------------------------------|
---6-6-6-6-6-6---------------------------------------------|
---6-6-6-6-6-6---5-5-5-5-5-5---2-2-2-2-2-2---5-5-5-5-5-5---|
---4-4-4-4-4-4---5-5-5-5-5-5---2-2-2-2-2-2---5-5-5-5-5-5---|
-----------------3-3-3-3-3-3---0-0-0-0-0-0---3-3-3-3-3-3---|
-----------------------------------------------------------|
Comments