Sevendust - Seperate Chords & Tabs

 

Seperate Chords & Tabs

Sevendust Chords & Tabs

Version: 1 Type: Tab 0 ratings
1 star 2 stars 3 stars 4 stars 5 stars
comments

Seperate Tab

   
Sevendust - Seperate
Standard 7d' Tuneing...which is (B,F#,B,E,G#,C#)
Tabbed by: Eric "mecod" Michaud

INTRO

-------------------------------------------------
-0------0---0------0-0---0---0----0---0----------
-2/4-4*-2-4-2-4--5-4-2*--2-4-2-4--5-4-2*---------
------------------------------------------------- 
----------------   REPEAT X 2   -----------------
-------------------------------------------------
...you can use trem. picking for this too but im just typing
it like this so it's easy to understand...

*listen to song for struming ocasionally hit the G# string...haha, G string, :D

---------------------------------------------------
---------------------------------------------------
---------------------------------------------------
-7-9-7-9--3(*b*)--7777-----------  REPEAT X 4# ----
-7-9-7-9--3(*b*)--7777-----------------------------
-7-9-7-9--3(*b*)--7777-----------------------------
(* Bend the SHIT outta that one both up/down *)
#On the 3rd time through every time u play that riff,
either play somthin below the bridge (depending on what kinda guitar u have,
ie...Gibson/Epi. Les Paul, or PRS 22 sound good) or do a harmonic that dosn't
sound right, (only guitar players will understand this lol) like, NOT on the
sweet spot...practice it for a little while and it'll come to ya...

Verse
------------------------------------------------------
-0-0------------------ REPEAT UNTIL CHORUS  ---------
-2/4*-------------------------------------------------
-------7-9-7-9--3(B)--7777-7-9-7-9--3(B)-7777-7-9-7-9-
-------7-9-7-9--3(B)--7777-7-9-7-9--3(B)-7777-7-9-7-9-
-------7-9-7-9--3(B)--7777-7-9-7-9--3(B)-7777-7-9-7-9-
*same caviate as intro....
[ Tab from: http://www.guitartabs.cc/tabs/s/sevendust/seperate_tab.html ]
CHORUS
-------------------------------------------------
-------------------------------------------------
-11--9--7--------4-------------------------------
--9--7--5-0-0-0--2-------------------------------
--9--7--5-0-0-0--2-------------------------------
--9--7--5-0-0-0--2-------------------------------
Listen to the song for Correct Strumming

there's a piano in there playing some scales but that can easily be
immitated/omitted when playing live...

BRIDGE
-------------------|-------
-------------------|-------
----------------9--|-9(B)--
-6-6-6-7-7-7-7--x--|-x-----
-4-4-4-5-5-5-5--7--|-7(B)--
-------------------|-------
REPEAT 3x's then play ^THIS^
blend that subtly into THAT (below, lol, no down arrows)
----|---------------------------------------------
----|---------------------------------------------
----|---------------------------------------------
-9--|-7-9-7-9--3(*b*)--7777-----  REPEAT 4x  -----
-9--|-7-9-7-9--3(*b*)--7777----------------------
-9--|-7-9-7-9--3(*b*)--7777----------------------

---------|-------------------------------------
-x-x-x-x-|-------------------------------------
-x-x-x-x-|-------------------------------------
-x-x-x-x-|-3(B)-0--7-9-7-9--   REPEAT x4   ----
-x-x-x-x-|-3(B)-0--7-9-7-9---------------------
---------|-3(B)-0--7-9-7-9---------------------

return to chorus then play this lil outro
OUTRO
--------------------------------|
--------------------------------|
--------------------------------|
-7-9-7-9--3(*b*)--7777---- x4 --|
-7-9-7-9--3(*b*)--7777----------|
-7-9-7-9--3(*b*)--7777----------|

---------|-------------------------------------
-x-x-x-x-|-------------------------------------
-x-x-x-x-|-------------------------------------
-x-x-x-x-|-3(B)-0--7-9-7-9--   REPEAT x4   ----
-x-x-x-x-|-3(B)-0--7-9-7-9---------------------
---------|-3(B)-0--7-9-7-9---------------------

okay, i got a little lazy w/ this after awhile...hey shit happens,
that's enough of a start that u can fill in the gaps...
later
Comments