Sevendust - Seasons Chords & Tabs

 

Seasons Chords & Tabs

Sevendust Chords & Tabs

Version: 1 Type: Tab 0 ratings
1 star 2 stars 3 stars 4 stars 5 stars
comments

Seasons Tab

Band- Sevendust
Song- Seasons

Tuning: Drop C


MAIN
|----------------------------------------------0----------------------------|
|----------------------------------------------3----------------------------|
|---------------------------------------------------------------------------|
|-----------------------0------2------------------------------0------2------|
|------x-x-x-x------x-x-0------2-----------x-x------------x-x-0------2------|
|-0h2--x-x-x-x-0h2--x-x-0------2------0h2--x-x-------0h2--x-x-0------2------|
|
|
|Guitar 2
|---------------------------------------------------------------------------|
|---------------------------------------------------------------------------|
|----------11------11---12-----11-----7/9------11--------11---12-----11-----|
|---------------------------------------------------------------------------|
|-----------9-------9---10-----9------5/7-------9---------9---10------9-----|
|---------------------------------------------------------------------------|


(continue)
|----------------------------------------------0---------------------------------|
|----------------------------------------------3---------------------------------|
|--------------------------------------------------------------------------------|
|-----------------------0------2------------------------------0------2-----------|
|------x-x-x-x------x-x-0------2-----------x-x------------x-x-0------2-----------|
|-0h2--x-x-x-x-0h2--x-x-0------2------0h2--x-x-------0h2--x-x-0------2-----------|
|
|
|Guitar 2
|--------------------------------------------------------------------------------|
|--------------------------------------------------------------------------------|
|----------11------11---12-----11-----7/9------11--------11---12-----12/14\12-11-|
|--------------------------------------------------------------------------------|
|-----------9-------9---10-----9------5/7-------9---------9---10-----10/12\10--9-|
|--------------------------------------------------------------------------------|



VERSE
|-------------------------------------|    |----------0----------------------------|
|-------------------------------------|    |----------3----------------------------|
|-------------------------------------|    |---------------------------------------|
|-----------------------0------2------|    |-------------------------0------2------|
|------x-x-x-x------x-x-0------2------|    |------x-x------------x-x-0------2------|
|-0h2--x-x-x-x-0h2--x-x-0------2------|    |-0h2--x-x-------0h2--x-x-0------2------|

 


PRE CHORUS
|-------------------------------------------------------------------|
|-------------------------------------------------------------------|
|-0---2\------------------------------5---7\--------------------2---|
|-0---2-\-----------------------------5---7-\---------------x-x-2---|
|-0---2--\----------------------------5---7--\--------------x-x-2---|


|-------------------------------------------------------------------|
|-------------------------------------------------------------------|
|-0---2\------------------------------5---7\--------------------0---|
|-0---2-\-----------------------------5---7-\---------------x-x-0---|
|-0---2--\----------------------------5---7--\--------------x-x-0---|



[ Tab from: http://www.guitartabs.cc/tabs/s/sevendust/seasons_tab.html ]
CHORUS
|---------------------------------------------------------------------------------|
|---------------------5-----------------------------------------------------------|
|-2-------------------5-------------------4-------------------5-------------------|
|-2-------------------3-------------------4-------------------5-------------------|
|-2---------------------------------------4-------------------5-------------------|




(During 2nd Verse - 1:30)
|----------0-----------------------------------0----------------------------|
|----------3-----------------------------------3----------------------------|
|---------------------------------------------------------------------------|
|-----------------------0------2------------------------------0------2------|
|------x-x----------x-x-0------2-----------x-x------------x-x-0------2------|
|-0h2--x-x-----0h2--x-x-0------2------0h2--x-x-------0h2--x-x-0------2------|




MIDDLE
|---------0--------------------------|     |---------0-------------------------|
|---------3--------------------------|     |---------3-------------------------|
|------------------------------------|     |-----------------------------------|
|------------------------------------|     |-----------------------------------|
|------------------------------------|     |-----------------------------------|
|-0-2-2------------------------------|     |-0-2-2-------------2br-----2br-----|
|                                          |
|                                          |
|Guitar 2                                  |Guitar 2                           
|------------------------------------|     |-----------------------------------|
|------------------------------------|     |-----------------------------------|
|---------------------------7--------|     |-----------------------------------|
|---------5-5-5-7-7-7-5h7p5-----5-7--|     |---------5-5-5-7-7-----------------|
|------------------------------------|     |-----------------------------------|
|-0-2-2------------------------------|     |-0-2-2-------------2br-----2br-----|
          . . . . . .                                . . . . .




(2:20)                                     (2:28)
|---------0--------------------------|     |---------0---------------------------|
|---------3--------------------------|     |---------3---------------------------|
|------------------------------------|     |-------------------------------------|
|------------------------------------|     |--------------------------2----------|
|-----------------x-----x-x----x-x-x-|     |--------------------2-2-2-2----2-2-2-|
|-0-2-2-----------x-----x-x----x-x-x-|     |-0-2-2--------------2-2-2-2----2-2-2-|
|                                          |                    . . .      . . .
|                                          |
|Guitar 2                                  |Gtr 2       
|-0----------------------------------|     |-0-----------------------------------|
|-5----------------------------------|     |-5-----------------------------------|
|------------------------------------|     |-------------------------------------|
|------------------------------------|     |--------------------------2----------|
|------------------------------------|     |--------------------2-2-2-2----2-2-2-|
|------------------------------------|     |--------------------2-2-2-2----2-2-2-|
                                                                . . .      . . .



LAST CHORUS  (3:01)
|----------------------------------------------------------------------------------|
|---------------------5-------------------7----------------------------------------|
|-2-------------------5-------------------7-----------------5------5h7-7-7-5h7-7-7-|
|-2-------------------3-------------------5-----------------5------5h7-7-7-5h7-7-7-|
|-2---------------------------------------------------------5------5h7-7-7-5h7-7-7-|
Comments