Sevendust - Praise Chords & Tabs

 

Praise Chords & Tabs

Sevendust Chords & Tabs

Version: 9 Type: Tab 0 ratings
1 star 2 stars 3 stars 4 stars 5 stars
comments

Praise Tab

----------------------------------------------------------------------------
                        sevendust - praise (only intro)
----------------------------------------------------------------------------

artist: sevendust
song: praise
album: animosity
tabbed by: Cesar

tuning: standard (E B G D A E) im pretty sure this is right tab for those people
who don't wanna change the tuning of the guitar

h = hammer on
/ = slide
[ Tab from: http://www.guitartabs.cc/tabs/s/sevendust/praise_tab_ver_9.html ]
E|--------------------------------------------------------
B|--------------------------------------------------------
G|--------------------------------------------------------
D|-----------5---5--------5---5-------5---5---------------
A|--------------------------------------------------------
E|-0h2-2---2---2---2-2-2----2---2-2-2---2---2-2-2-0-2-0-2-

E|--------------------------------------------------------
B|--------------------------------------------------------
G|--------------------------------------------------------
D|-2/4-------5---5--------5---5-------5---5---------------
A|-2/4----------------------------------------------------
E|-0/2-2---2---2---2-2-2----2---2-2-2---2---2-2-2-0-2-0-2-


E|-------------------------------------------------------------
B|-------------------------------------------------------------
G|-------------------------------------------------------------
D|-2/4-4--4-5-4-5-4-4---4-5-4-5-4-4---4-5-4-5---4-4-4-2-4-2-4--
A|-2/4-4--4-5-4-5-4-4---4-5-4-5-4-4---4-5-4-5---4-4-4-2-4-2-4--
E|-0/2-2--2-3-2-3-2-2---2-3-2-3-2-2---2-3-2-3---2-2-2-0-2-0-2--

enjoy
Comments