Sevendust - Praise Chords & Tabs

 

Praise Chords & Tabs

Sevendust Chords & Tabs

Version: 3 Type: Tab 0 ratings
1 star 2 stars 3 stars 4 stars 5 stars
comments

Praise Tab

   
ok pplz this is me 1st time at tabbing sumthing, but tha tab is rite n e questions/comments email em
2 me harry_high_pants@hotmail.com
enjoy
Sevendust
Praise


R = Rest
S = Slide
B = Bend
* = Let Ring


Intro : I think its drop tuned but im not 100% sure

e----------------------------------------------------------------------------
b----------------------------------------------------------------------------
g----------------------------------------------------------------------------
d----------------------------------------------------------------------------
a-----3-----------3---3-----------3-----3------------2-3-2-3-2---------------
e--2-----2--R- 2----2--- 2--R--2-----2-----2--R--2---------------------------
                                                    ...........
                                                     Palm Mute

Verse: Same As Intro, eccept tha 1st time its all palm muted.


Pre Chorus: Same As Verse
[ Tab from: http://www.guitartabs.cc/tabs/s/sevendust/praise_tab_ver_3.html ]
e-----------------------------------------------------------------------------
b-----------------------------------------------------------------------------
g-----------------------------------------------------------------------------
d--7-7-7-7-7-7-7----5*---3*-----------Repeat Many Times-----------------------
a--7-7-7-7-7-7-7----5*---3*---------------------------------------------------
e--5-5-5-5-5-5-5----3*-S-1*---------------------------------------------------
   .............
     Palm Mute               


Chorus: Really Easy

e-----------------------------------------------------------------------------
b-----------------------------------------------------------------------------
g-----------------------------------------7-7-7-7-7-7-7-7-7--5-5-5-5-5-5-5-5-5
d---7-7-7-7-7-7-7-7-7--5-5-5-5-5-5-5-5-5--7-7-7-7-7-7-7-7-7--5-5-5-5-5-5-5-5-5
a---7-7-7-7-7-7-7-7-7--5-5-5-5-5-5-5-5-5--5-5-5-5-5-5-5-5-5--3-3-3-3-3-3-3-3-3
e---5-5-5-5-5-5-5-5-5--3-3-3-3-3-3-3-3-3--------------------------------------
Comments