Sevendust - Praise Chords & Tabs

 

Praise Chords & Tabs

Sevendust Chords & Tabs

Version: 2 Type: Bass Tab 0 ratings
1 star 2 stars 3 stars 4 stars 5 stars
comments

Praise Bass Tab

sevendust - praise

Main riff
E -------------------------------------------------------
B -------------------------------------------------------
F#-------------------------------------------------------
B 0-2--2--2-3-2-3-2--2--2-3-2-3-2--2--2-3-2-3-2-2-0-2-0-2
[ Tab from: http://www.guitartabs.cc/tabs/s/sevendust/praise_btab_ver_2.html ]
Pre-chorus
E----------------------------------------------------------------
B-----------------------3----------------------------------------
F#----------------1-1-1--1----1-0-----------------1-1-1-1-1-1-1-1
B 2-2-2-0-0-2-2-0-----------------2-2-2-0-0-2-2-0----------------

Chorus
E----------------------------------------------------------------
B----------------------------------------------------------------
F#-------------------------------1-1-1-1-1-1-1-1-3-3-3-3-3-3-3-3
B 2-2-2-2-2-2-2-2-0-0-0-0-2-2-0-2--------------------------------


Thats pretty musch the whole song. 
If you have any questions email me rvd7692@guitar.com
Comments