Sevendust - Praise Chords & Tabs

 

Praise Chords & Tabs

Sevendust Chords & Tabs

Version: 1 Type: Bass Tab 0 ratings
1 star 2 stars 3 stars 4 stars 5 stars
comments

Praise Bass Tab

Yo, This is a Bass tab for Sevendust's Praise. 
Now Listen up and pay attention. 
This being my first submission you need to take it easy with 
the constructive advise.
No use skrewing around here it is.

Sevendust: Praise

Verse:
|-----------------------------------------------------------------
|-----------------------------------------------------------------
|-----------------------------------------------------------------
|------0--2-2-2-3-2-3-2-2-2-3-2-3-2-2-2-3-2-3-0-2-2-0-2-----------

[ Tab from: http://www.guitartabs.cc/tabs/s/sevendust/praise_btab.html ]
PreChorus:
|-----------------------------------------------------------------
|-----------------------------------------------------------------
|------------------5--5---5----------------------------------
|--7-7-7--5-5-3-3----3--3---3--------------------------------------

Chorus:
|-----------------------------------------------------------------
|-----------------------------------------------------------------
|--------------------------------7-7-7-7-7-7-7-7-5-5-5-5-5-5-5----
|---7-7-7-7-7-7-7-5-5-5-5-5-5-5-5---------------------------------




Say Thank you.
This Bass God Kontakt me @  NEOPimp01@cs.com
Have fun w/ this Bass Tab.
Comments