Sevendust - Live Again Chords & Tabs

 

Live Again Chords & Tabs

Sevendust Chords & Tabs

Version: 1 Type: Tab 0 ratings
1 star 2 stars 3 stars 4 stars 5 stars
comments

Live Again Tab

"Live Again"
- Sevendust

This song is the BEST!!! I couldn't find any tabs and I was like WHAT THE?! So I figured
I'd let you guys know how I play it. Here ya're!


Intro/Bridge:

e-|-----------------------------|----------------------------------|
B-|-----------------------------|----------------------------------|
G-|-----------------------------|----------------------------------|
D-|---3-3-X-X-X---3-3-X-X-X-X---|---3-3-X-X-X---3-3-X-X------------|
A-|---3-3-X-X-X---3-3-X-X-X-X---|---3-3-X-X-X---3-3-X-X-------5~---|
d-|---3-3-X-X-X---3-3-X-X-X-X---|---3-3-X-X-X---3-3-X-X---5h3------|

e-|-----------------------------|------------------------------------|
B-|-----------------------------|------------------------------------|
G-|-----------------------------|------------------------------------|
D-|---3-3-X-X-X---3-3-X-X-X-X---|---3-3-X-X-X---3-3-X-X--------------|
A-|---3-3-X-X-X---3-3-X-X-X-X---|---3-3-X-X-X---3-3-X-X---3h5-3h5~---|
d-|---3-3-X-X-X---3-3-X-X-X-X---|---3-3-X-X-X---3-3-X-X--------------|



Verse:
[ Tab from: http://www.guitartabs.cc/tabs/s/sevendust/live_again_tab.html ]
e-|------------------------------------------------------------------------------------|
B-|------------------------------------------------------------------------------------|
G-|------------------------4---------------------4----------------4--------------------|
D-|---5~-----4~--------------5~--------------------5~---------------5~-----------------|
A-|------7------5~-4-X-X--------7---7-5-4h5p4~--------7---7-5-4--------7---7-5-4h5p4---|
d-|------------------------------------------------------------------------------------|



Chorus:

e-|-------------------------------------------|
B-|-------------------------------------------|
G-|-------------------------------------------|
D-|------9---9---9--------5---5/-----7---7/---|
A-|----------------7--------------------------|
d-|---/7---7---7-------*3---3------5---5------|

Play twice, on the third time play the following after the *asterisk. 

e-|--------------------------|
B-|--------------------------|
G-|--------------------------|
D-|------5---5/-----4---4~---|
A-|--------------------------|
d-|---/3---3------2---2------|




Those are basically the only parts to this song. It's pretty easy, a sounds great if you have
a good singer!
Comments