Sevendust - Live Again Chords & Tabs

 

Live Again Chords & Tabs

Sevendust Chords & Tabs

Version: 1 Type: Bass Tab 0 ratings
1 star 2 stars 3 stars 4 stars 5 stars
comments

Live Again Bass Tab

   
Band- Sevendust
Song- Live Again

Tuning: Standard (B E A D G)



|-------------|-------------|
|-------------|-------------|
|-------------|-------------|
|-------------|-------------|
|-00-00-00-00-|-00-00-00-00-|

|--------------|----------|
|--------------|----------|
|-10101010-777-|-9999-555-| 4x
|--------------|----------|
|--------------|----------|

|------------|-----------|------------|-----------|
|------------|-----------|------------|-----------|
|------------|-----------|------------|-----------|
|-3-33-33-33-|------2-22-|-3-33-33-33-|------2-22-|
|------------|-3-33------|------------|-3-33------|


|-----------|-----------|------------|------------|
|-----------|-----------|------------|------------|
|-----------|-----------|------------|------------|
|-0-00-00-0-|-2-22-22-2-|------------|-2-22-22-22-|
|-----------|-----------|-0-00-00-00-|------------|

|------------|---------------|------------|------------|
|------------|---------------|------------|------------|
|------------|---------------|-2-22-22-22-|------------|
|-3-33-33-33-|---------------|------------|-2-22-22-22-|
|------------|-3-33-3-5-55-5-|------------|------------|

|------------|---------------|
|------------|---------------|
|------------|---------------|
|-3-33-33-33-|---------------|
|------------|-3-33-3-5-55-5-|

|-------------|-------------|
|-------------|-------------|
|-------------|-------------|
|-------------|-------------|
|-00-00-00-00-|-00-00-00-00-|
[ Tab from: http://www.guitartabs.cc/tabs/s/sevendust/live_again_btab.html ]
|--------------|----------|
|--------------|----------|
|-10101010-777-|-9999-555-| 4x
|--------------|----------|
|--------------|----------|

|------------|-----------|------------|-----------|
|------------|-----------|------------|-----------|
|------------|-----------|------------|-----------|
|-3-33-33-33-|------2-22-|-3-33-33-33-|------2-22-|
|------------|-3-33------|------------|-3-33------|


|-----------|-----------|------------|------------|
|-----------|-----------|------------|------------|
|-----------|-----------|------------|------------|
|-0-00-00-0-|-2-22-22-2-|------------|-2-22-22-22-|
|-----------|-----------|-0-00-00-00-|------------|

|------------|---------------|------------|------------|
|------------|---------------|------------|------------|
|------------|---------------|-2-22-22-22-|------------|
|-3-33-33-33-|---------------|------------|-2-22-22-22-|
|------------|-3-33-3-5-55-5-|------------|------------|

|------------|---------------|
|------------|---------------|
|------------|---------------|
|-3-33-33-33-|---------------|
|------------|-3-33-3-5-55-5-|


|-------------|-------------|-------|-----|---------------
|-------------|-------------|-------|-----|---------------
|-------------|-------------|-2-----|-----|-2-2-2---------
|-------------|-------------|---2-3-|-----|-------2-22----
|-00-00-00-00-|-00-00-00-00-|-------|-3-5-|---------------


|--------------|
|--------------|
|--------------|
|-3-33---------|
|------3-3-5-5-|

|------------|------------|------------|---------------|
|------------|------------|------------|---------------|
|-2-22-22-22-|------------|------------|---------------|
|------------|-2-22-22-22-|-3-33-33-33-|---------------|6x
|------------|------------|------------|-3-33-3-5-55-5-|


|---|
|---|
|-2-|
|---|
|---|
Comments