Sevendust - Hurt Chords & Tabs

 

Hurt Chords & Tabs

Sevendust Chords & Tabs

Version: 2 Type: Tab 0 ratings
1 star 2 stars 3 stars 4 stars 5 stars
comments

Hurt Tab

Band- Sevendust
Song- Hurt

Tuning: Start with standard tuning tuned down one half step
	Tune the 1st string down one whole step to C#
	Tune the 5th string up one half step to B
	Tune the 6th string down one whole step to C#


*Intro & Verses* (allow strings to ring throughout)

 C# ----0-------0---|----0-------0---|
 B  ----0---------0-|------0-------0-|
 F# --0-------------|--0-------0-----|
 C# ----------------|----------------|
 G# 0---------------|3-------5-------|
 C# ----------------|----------------|

*Choruses & Outro*
[ Tab from: http://www.guitartabs.cc/tabs/s/sevendust/hurt_tab_ver_2.html ]
 Guitar 1
 C# 0---0---0---0---|0---0---0---0---|0---0---0---0---|-0----0----0----0-|
 B  0---0---0---0---|0---0---0---0---|0---0---0---0---|-0----0----0----0-|
 F# 0---0---0---0---|0---0---0---0---|0---0---0---0---|-0----0----0----0-|
 C# 0---0---0---0---|0---0---0---0---|0---0---0---0---|-0----0----0----0-|
 G# 5---5---5---5---|7---7---7---7---|3---3---3---3---|10---10---10---10-|
 C# 5---5---5---5---|7---7---7---7---|3---3---3---3---|10---10---10---10-|

 Guitar 2
 C# 0---0---0---0---|0---0---0---0---|0---0---0---0----|0----0----0----0-|
 B  0---0---0---0---|0---0---0---0---|0---0---0---0----|0----0----0----0-|
 F# 0---0---0---0---|0---0---0---0---|0---0---0---0----|0----0----0----0-|
 C# 0---0---0---0---|0---0---0---0---|0---0---0---0----|0----0----0----0-|
 G# 5---5---5---5---|7---7---7---7---|3---3---3---3----|3----3----3----3-|
 C# 5---5---5---5---|7---7---7---7---|3---3---3---3----|x----x----x----3-|

Of course, variations on this theme arise from time to time.  Listen to the
song for more precision.
Comments