Sevendust - Home Chords & Tabs

 

Home Chords & Tabs

Sevendust Chords & Tabs

Version: 1 Type: Tab 0 ratings
1 star 2 stars 3 stars 4 stars 5 stars
comments

Home Tab

   
"Home" by Sevendust
Album, Home

by Part_Of_Me

Another song with another of their freaky tunings. hehe
There's room to improvise and just have fun with it since
it's so percusive/jam based.
Low to High Ab-Ab-Db-Gb-Bb-Eb  
(standard down  step w/ low string down to Ab)


INTRO
Guitar 1 
Eb-------------------------------- 
Bb-------------------------------- 
Gb-------------------------------- (play 4x)
Db-------------------------------- 
Ab--------------------------------
Ab-000--0-000--------------------- 
p.m. - - - - - |               

Guitar 2 
Eb--------------------------------
Bb-------------------------------- 
Gb-------------------------------- (play 4x)
Db-------------------------------- 
Ab-------------------------------- 
Ab-000--0-000--0---0--0--0---0-0-- 
p.m. - - - - - - - - - - - - - - | 

Guitars 1 & 2 
Eb--------------------------------
Bb--------------------------------
Gb-------------------------------- (play 8x)
Db--------------------------------
Ab--------------------------------
Ab-000--0-000--0---0--0--0---0-0--
p.m. - - - - - - - - - - - - - - |

VERSE 1
Guitar 1 w/ wah or filter effect 
Eb------------------------|------------------------
Bb------------------------|------------------------
Gb--5--5------------------|--5--5------------------ (play 3x)
Db------------------------|------------------------
Ab--3--4------------------|--3--4------------------
Ab--------0-0-0-0--0-0-0--|--------0-0-0-0--0-0-0--
        p.m. - - - - - - |        p.m. - - - - - -|
       
Guiatr 2 w/ wah or filter effect
Eb------------------------|-----------------------
Bb------------------------|-----------------------
Gb--5--5--5-5-5-5--5-5-5--|--5--5----------------- (play 3x)
Db------------------------|-----------------------
Ab--3--4------------------|--3--4--4-4-4-4--4-4-4-
Ab------------------------|-----------------------
        p.m. - - - - - - |        p.m. - - - - - -|

Guiatrs 1&2
Eb------------------------
Bb------------------------
Gb--5--5------------------
Db------------------------
Ab--3--4------------------
Ab--------0-0-0-0---------
       p.m. - - - |


CHORUS 
Guitars 1&2 
Eb--------------------------|--------------
Bb--------------------------|--------------
Gb--------------------------|-------------- (play 2x)
Db--------------------------|--------------
Ab--------------------------|--------------
Ab--0-0---0-0----0-0---0-0--|--0-0---0-0---
  p.m. - - - - - - - - - - - - - - - - - |
  "I'm Home, leave it to me..."

Eb------------------
Bb------------------
Gb--6-----8--------- (w/ wah or filter effect)
Db--------7---------  
Ab--4-----6---------
Ab------------------
[ Tab from: http://www.guitartabs.cc/tabs/s/sevendust/home_tab.html ]
Guitars 1 & 2 
Eb--------------------------------
Bb--------------------------------
Gb-------------------------------- (play 5x)
Db--------------------------------
Ab--------------------------------
Ab-000--0-000--0---0--0--0---0-0--
p.m. - - - - - - - - - - - - - - |
  "From left to right!"

VERSE 2
Guitars 1&2 - Same as first verse.

SECOND CHORUS
Guitars 1&2
Eb--------------------------|--------------
Bb--------------------------|--------------
Gb--------------------------|-------------- (play 2x)
Db--------------------------|--------------
Ab--------------------------|--------------
Ab--0-0---0-0----0-0---0-0--|--0-0---0-0---
  p.m. - - - - - - - - - - - - - - - - - |
  "I'm Home, leave it to me..."

INTERLUDE
Guitar 1
Eb-----------------|--------------------
Bb-----------------|--------------------
Gb--5--8---6-9-9-9-|-5--6---6-9-9--5-6--
Db-----------------|--------------------
Ab--3--6---4-7-7-7-|-3--4---4-7-7--3-4--
Ab-----------------|--------------------

Eb-----------------|---------------------
Bb-----------------|---------------------
Gb--5--8---6-9-9-10|-5-6-----5-5---5-5-6-
Db-----------------|---------------------
Ab--3--6---4-7-7-8-|-3-4-----3-3---3-3-4-
Ab-----------------|---------------------

Guitar 2 
Eb--------------------------------
Bb--------------------------------
Gb-------------------------------- (play 4x)
Db--------------------------------
Ab--------------------------------
Ab-000--0-000--0---0--0--0---0-0--
p.m. - - - - - - - - - - - - - - |


SECOND CHORUS - after Interlude
Guitars 1&2 
Eb--------------------------------
Bb--------------------------------
Gb-------------------------------- (play 4x)
Db--------------------------------
Ab--------------------------------
Ab-000--0-000--0---0--0--0---0-0--
p.m. - - - - - - - - - - - - - - |
 "From left to right!"

BRIDGE
Two guitars arranged for one
(Slide the octave half steps quick and graceful. That's what 
gives them that push/pull feel).
Eb--------------------------|--------------------------
Bb--------------------------|--------------------------
Gb---------9-10--8-7--------|-8-7-----------------9-10-
Db--------------------------|--------------------------
Ab---------7-8---6-5--------|-6-5-----------------7-8--
Ab--0-0-0-------------0-0-0-|------0-0-0---0-0-0-------

Eb----------------------------|----------------5---------
Bb----------------------------|----------------6---------
Gb--8-7----------8-9----------|--------12-13---7---------
Db----------------------------|--------------------------
Ab--6-5----------6-7----------|--------10-11-------------
Ab--------0-0-0---------0-0-0-|-0-0-0--------------0-0-0-

Eb------------------------|------------------------
Bb------------------------|------------------------
Gb-8-9-----------------12-|-8-7---------8-9--------
Db---------------------11-|------------------------
Ab-6-7-----------------10-|-6-5---------6-7--------
Ab------0-0-0---0-0-0-----|------0-0-0-------0-0-0-


Intro riff (play 2x)

VERSE 3
Guitars 1&2 - (play 2x)

LAST CHORUS 
Guitars 1&2 - play as needed
Comments