Sevendust - Headtrip Chords & Tabs

 

Headtrip Chords & Tabs

Sevendust Chords & Tabs

Version: 1 Type: Tab 0 ratings
1 star 2 stars 3 stars 4 stars 5 stars
comments

Headtrip Tab

Artist: Sevendust
Song: Headtrip
Album: Home

TABBED BY: MIke Nickerson

    ANY QUESTIONS, COMMENTS OR REQUESTS 
    EMAIL ME AT:
                            
        lvhardflip@aol.com

This is my first tab so far but its pretty good I think.  I had help from a 
friend and
the parts that we got done sounded pretty much on the money.  There are a few 
parts that
vary from what we have, for example during the outro, one guitar is playing 
that Eb/D#(5th string 
seventh fret) octave from the verse, and the other guitar is playing that 
chord but moving up the 
neck in half steps, but since the main structure of the song is here, you 
should be able to get 
the little bridges and stuff from what is tabbed out already.  To get the tab 
sounding perfect 
just listen to the song a few times to pick up the nuances.

TUNING: Drop D, with all string flatted a half step

    Db|--------|
    Ab|--------|
    Db|--------|
    Gb|--------|
    Bb|--------|
    Eb|--------|


INTRO:

Guitar 1 (Lead)

Clean
1a)
|----------------|
|----------------|
|---------3------|
|-----------0----|     x9   
|----------------|
|----0-2---------|


Guitar 2 (come in after second repition of first riff, 00:04 seconds)

Distorted
1b)
|-----|
|-----|
|--9--|
|--x--|   REPEAT--fast strumming
|--7--|
|-----|
[ Tab from: http://www.guitartabs.cc/tabs/s/sevendust/headtrip_tab.html ]
Both
2)
|---------------------|
|---------------------|
|--9-9-9-9-9-9-9--\7--|
|--9-9-9-9-9-9-9--\7--|    X4 
|--7-7-7-7-7-7-7--\5--|
|---------------------|

Guitar 1

With this riff it sounds like Clint is actually using a whammy bar instead of 
sliding because
it sounds too fluid for these notes to be played with a slide.  However, it 
still sounds fine 
without, for I would only recommend the whammy if you are good with it (which 
I am definately not)
but either way you play it make sure that you play the full bar because that 
fourth string is 
important for the sound..........LT

Heavy Distortion 
3)
|-------------------------------------------|
|--10--------------------10-----------------|
|--9---------------------9------------------|
|-------9--9/10\9-\8----------9--9/10\9-\12-|   X3
|-------7--9/10\9-\8----------7--9/10\9-\12-|
|----------9/10\9-\8-------------9/10\9-\12-|



VERSE:


Guitar 2 
|-----|
|-----|
|--9--|
|--x--|   REPEAT--fast strumming, stuccato at certain times, listen to the 
|--7--|        	song to get    varied strumming patterns right.
|-----|


CHORUS:

Guitar 1
|-------------------------------------------|
|--10--------------------10-----------------|
|--9---------------------9------------------|
|-------9--9/10\9-\8----------9--9/10\9-\12-|   X2
|-------7--9/10\9-\8----------7--9/10\9-\12-|
|----------9/10\9-\8-------------9/10\9-\12-|
Comments