Sevendust - Follow Chords & Tabs

 

Follow Chords & Tabs

Sevendust Chords & Tabs

Version: 1 Type: Tab 0 ratings
1 star 2 stars 3 stars 4 stars 5 stars
comments

Follow Tab

   
ARTIST: Sevendust
ALBUM: Animosity
SONG: Follow
TABBED: Steven B.
TUNING: (B,F#,B,E,G#,C#)

INTRO
GUITAR 1 (Clean) HOLD THROUGHOUT
B  :------2---------2------2--------------5-------------------------------
F# :---------0---------0----------0--8-------8----------------------------
B  :--4----------4-------------4------------------4-----------------------
E  :----------------------------------------------------------------------
G# :----------------------------------------------------------------------
C# :----------------------------------------------------------------------
[ Tab from: http://www.guitartabs.cc/tabs/s/sevendust/follow_tab.html ]
GUITAR 2 (w/ Modulation Effect)
B  :--------------------------------------------------------12-------------
F# :----12-/-14---12-/-14---12-/-14---12-/-14------------------------------
B  :-----------------------------------------------------------------------
E  :-----------------------------------------------------------------------
G# :-----------------------------------------------------------------------
C# :-----------------------------------------------------------------------

GUITAR 1
B  :---2------------------------2----------------0------------------------
F# :------------5--------------------0--------------0---------------------
B  :-------4------4--4--4---------------4---2-----------------------------
E  :----------------------------------------------------------------------
G# :----------------------------------------------------------------------
C# :----------------------------------------------------------------------                                

THAT'S ALL.
Comments