Sevendust - Feel So Chords & Tabs

 

Feel So Chords & Tabs

Sevendust Chords & Tabs

Version: 1 Type: Bass Tab

Feel So Bass Tab

Band- Sevendust
Song- Feel So

Arranged for 4 string in drop c tuning(2 steps down): Low to high C A D G


Intro
g|------------------------------|
d|------------------------------|
a|------------------------------|
c|-0-0-x-x-0-0-x-x-0-0-x-x-0-0--|

verse
g|--------------------------------------|
d|--------------------------------------|
a|--------------------------------------|
c|-2-2-1-1----2-2-0-0-x-x-1-x-x-1-x-1-x-|
[ Tab from: http://www.guitartabs.cc/tabs/s/sevendust/feel_so_btab.html ]
Chorus			   After Chorus
g|-------------------------|------------------|
d|-------------------------|------------------|
a|-------------------------|-2-2-2-2--2-2-2-2-|
c|-0-5-5-0-0-5-5-5-0-0-0-0-|------------------|

Middle
g|------------------------------------------------------------------------------------|
d|------------------------------------------------------------------------------------|
a|-2-2-2-2--2-2-2-2-----------------2-2-2-2-------2-2-2-2-----------------------------|
c|------------------1-1-1-1-7-7-7-7---------0-0-0---------0-0-0-2-2-2-2-2-2-2-2-7-7-7-|

Middle 2
g|--------|-------------|
d|--------|-------------|
a|--------|-------------|
c|-1--11-|-0-0-5-0-0-5--|