Sevendust - Fall Chords & Tabs

 

Fall Chords & Tabs

Sevendust Chords & Tabs

Version: 1 Type: Tab

Fall Tab

   
Band- Sevendust
Song- Fall

Tuning: B F# B E G# C#

Intro

|------------------------------------------------|
|------------------------------------------------|
|-----3---------2--------2-----------2-------2h3-|
|-------0---------5--------0------0--------------|
|----------0h4-------0h5------0h3---------3------|
|-0h5--------------------------------------------|


Verse

|-----------------------------------------|
|-----------------------------------------|
|---------13-13-13-13\-------13^-13^-13^\-|
|----------x--x--x--x---------x---x---x---|
|-0-0-0-0-11-11-11-11\-------11^-11^-11^\-|
|-0-0-0-0---------------0-0---------------|

|----------------------------------------|
|----------------------------------------|
|---------11-11-11-11-------11^-11^-11^--|
|---------10-10-10-10-------10^-10^-10^--|
|-0-0-0-0-9--9--9--9---------9^--9^--9^--|
|-0-0-0-0--------------0-0---------------|

Before Chorus

|-----------|
|-----------|
|-----------|
|-----------|
|-0--0--0-0-|
|-0--0--0-0-|

Chorus
[ Tab from: http://www.guitartabs.cc/tabs/s/sevendust/fall_tab.html ]
|------------------------------------------------|
|------------------------------------------------|
|-----3---------2--------2-----------2-------2h3-|
|-------0---------5--------0------0--------------|
|----------0h4-------0h5------0h3---------3------|
|-0h5--------------------------------------------|


Interlude/Outro

|----------------------------------------------------------|
|----------------------------------------------------------|
|------------7-7/9-9-9-9------------------4-4-4-4-4-4-4-4--|
|--5/7-------x-x-x-x-x-x--3-3-3-3-3-3-3-3-x-x-x-x-x-x-x-x--|
|--3/5-4-4-4-5-5/7-7-7-7--1-1-1-1-1-1-1-1/2-2-2-2-2-2-2-2--|
|------4-4-4-----------------------------------------------|

Chorus 3/Bridge

|-----------------------------------------------------------------|
|-----------------------------------------------------------------|
|-----------------------------------------------------------------|
|-----------------6-6-6-6-6-6-6-6/7-7-7-7-7-7-7-7\5-5-5-5-5-5-5-5-|
|-5-5-5-5-5-5-5-5-4-4-4-4-4-4-4-4/5-5-5-5-5-5-5-5\3-3-3-3-3-3-3-3-|
|-5-5-5-5-5-5-5-5-------------------------------------------------|
  p.m............................................................