Sevendust - Enemy Chords & Tabs

 

Enemy Chords & Tabs

Sevendust Chords & Tabs

Version: 1 Type: Bass Tab

Enemy Bass Tab

Band- Sevendust
Song- Enemy

Here it is. Straight off the Seasons LP. Probably the 2nd or 3rd best song off the album.

Opening Riff(0:09)
G:----------------------------------------------------------------|-
D:----------------------------------------------------------------| |
A:----------------------------------------------------------------| |1x
E:-0-0-0h20-220-00-22--------0-0-0h2-220-22-00-22-----------------|-

First Verse HAs NO BASS

Chorus(0:37)
G:----------------------------------------------------------------|-
D:----------------------------------------------------------------| |
A:----------------------------------------------------------------| |1x
E:--7~-7~-7-7-5-3--2---------0-0-0-2----7~-7~-7-7-5-3--2----------|-

Second Verse (0:54) [Same as opening Riff]
G:----------------------------------------------------------------|-
D:----------------------------------------------------------------| |
A:----------------------------------------------------------------| |x2
E:-0-0-0h20-220-00-22--------0-0-0h2-220-22-00-22-----------------|-
[ Tab from: http://www.guitartabs.cc/tabs/s/sevendust/enemy_btab.html ]
Chorus(1:12)
G:----------------------------------------------------------------|-
D:----------------------------------------------------------------| |
A:----------------------------------------------------------------| |2x
E:--7~-7~-7-7-5-3--2---------0-0-0-2----7~-7~-7-7-5-3--2----------|-

Bridge(1:44)
G:----------------------------------------------------------------|-
D:----------------------------------------------------------------| |
A:----------------------------------------------------------------| |2x
E:-2~-22-2~-22-0~-0~-0-00-00--------------------------------------|_

Chorus(2:06)
G:----------------------------------------------------------------|-
D:----------------------------------------------------------------| |
A:----------------------------------------------------------------| |2x
E:--7~-7~-7-7-5-3--2---------0-0-0-2----7~-7~-7-7-5-3--2----------|-

Closing Riff(2:38)
G:----------------------------------------------------------------|-
D:----------------------------------------------------------------| |
A:----------------------------------------------------------------| |1x
E:-0-0-0h20-220-00-22--------0-0-0h2-220-22-00-22-----------------|-

Outro(2:51)[ALBUM VERSION ONLY!!!!]
G:----------------------------------------------------------------|-
D:----------------------------------------------------------------| |
A:----------------------------------------------------------------| |
E:--0~--2~~---0~--2~~------0~-2~--////---------|-