Sevendust - Disease Chords & Tabs

 

Disease Chords & Tabs

Sevendust Chords & Tabs

Version: 1 Type: Tab 0 ratings
1 star 2 stars 3 stars 4 stars 5 stars
comments

Disease Tab

   
Band- Sevendust
Song- Disease

Tuning: Drop B  (B F# B D# G# C#)


INTRO                                 *                * 1st        2nd
|-------------------------------------------------|    |-9--9-|    |------|
|-------------------------------------------------|    |-9--9-|    |-2--2-|
|-------------------------------------------------|    |-7--7-|    |-2--2-|
|-2--2--2--0--0--0--8--8--8--0--0--0--2--2--0--0--|    |------|    |-2--2-|




VERSE
|-12--14--14--14----14---14---14--|
|---------------------------------|
|---------------------------------|
|---------------------------------|
|
|Guitar 2      w/Wah
|---------------------------------|       |--------------------------------|
|---------------------------------|  2x   |--------------------------------|
|-7~~~----------------------------| Then  |-5~~~---------------------------|
|---------------------------------|       |--------------------------------|



2nd Verse            End Of 2nd Verse
|-------------|      |--------------------------|
|-------------|      |-8----8----8----8---8--8--|
|-------------|      |-8----8----8----8---8--8--|
|-2--2--2--0--|      |-8----8----8----8---8--8--|
  .  .  .  .




PRE CHORUS
|---------------7--7-7-7--7--<7>-----9--|
|-2--2--2--0----------------------9-----|
|-2--2--2--0----------------------------|
|-2--2--2--0----------------------------|
                .  . . .  .


[ Tab from: http://www.guitartabs.cc/tabs/s/sevendust/disease_tab.html ]
CHORUS
|---------------------------------------------------------|
|-2-------------0-------------10------------5---------7---|
|-2-------------0-------------10------------5---------7---|
|-2-------------0-------------10------------5---------7---|


|---------------------------------------------------------|
|-2-------------0-------------11------------10------------|
|-2-------------0-------------11------------10------------|
|-2-------------0-------------11------------10------------|



            MIDDLE
|--9--|     |-------------------------------------|
|--9--|     |-------------------------------------|
|--7--|     |-------------------------------------|
|-----|     |-2--2--2--0--0--0--8--8--8--0--0--0--|



LEAD   (During Last Chorus)
|-12------------14------------15------------17---15--------14------|
|-15F-----------17F-----------18F-----------20F--18F-------17F-----|
|------------------------------------------------------------------|
|------------------------------------------------------------------|
|------------------------------------------------------------------|
|------------------------------------------------------------------|


|-15------------14------------15------------17---------19----------|
|-18F-----------17F-----------18F-----------20F--------22F---------|
|------------------------------------------------------------------|
|------------------------------------------------------------------|
|------------------------------------------------------------------|
|------------------------------------------------------------------|




|-------------------------------------------------|
|-------------------------------------------------|
|-------------------------------------------------|
|-2~~~-----0-------/8~~~-----0--------2~~---0-----|
Comments