Sevendust - Crucified Chords & Tabs

 

Crucified Chords & Tabs

Sevendust Chords & Tabs

Version: 1 Type: Tab 0 ratings
1 star 2 stars 3 stars 4 stars 5 stars
comments

Crucified Tab

   
Crucified by Sevendust
Submitted by Alex V.

Low to high B-F#-B-E-F#-B

INTRO AND VERSE RIFF:
B-------------------------------|-------------------------------
F#------------------------------|-------------------------------
E-------------------------------|-------------------------------
B-------------------------------|-------------------------------
F#------7-5---------------------|-------7-3---------------------
B---8-0------0--0--00--0--0---0-|---8-0------0--0--0-0-0-0-0--0-
[In verses:  *  *  **  *  *   *              *  *  * * * * *  *]

B-------------------------------|----------------------------
F#------------------------------|----------------------------
E-------------------------------|----------------------------
B-------------------------------|----------------------------
F#------7-5---------------------|-------7-3------------------
B---8-0------0--0--00--0--0---0-|---8-0------0--0-78888320---
[In verses:  *  *  **  *  *   *              *  *]

PRE-CHORUS:
B-----------------------|-------------------
F#----------------------|-------------------
E----7b-----7b----------|--7b------7b------- [2x]
B-----------------------|-------------------
F#---5b-----5b----------|--5b------5b-------
B-----------------00--0-|---------------000-
                  **  *                 ***
       "Don't you feel like a bitch?!"

CHORUS: [you can figure the rhythm]
Guitar 1
B-------|       ----------|     ----------|
F#------|       ----------|     ----------|
E----7--|[2x]   --10------|[2x] --10------|[1x]
B-------|       ----------|     ----------|
F#---5--|       --8-------|     ---8------|
B-------|       ----------|     ---0------|
[ Tab from: http://www.guitartabs.cc/tabs/s/sevendust/crucified_tab.html ]
B-------------------------------|-----------------------
F#------------------------------|-----------------------
E----10--10-10-10-10--9-9-9-10--|--7--7--7---7-7--7--7--
B-------------------------------|--5--5--5---5-5--5--5--
F#---8---8--8--8--8---7-7-7-8---|--5--5--5---5-5--5--5--
B----0---0--0--0--0---0-0-0-0---|--5--5--5---5-5--5--5--

B-------------------------
F#------------------------
E----2--2--2---2-2--2--2--
B----1--1--1---1-1--1--1--
F#---1--1--1---1-1--1--1--
B----1--1--1---1-1--1--1--

Guitar 2 [same as Guitar 1, except for 
the these first two chords] 
B----0--|       ---0------|
F#---0--|       ---0------|
E----7--|[2x]   --10------|[2x] 
B----0--|       --10------|
F#------|       ----------|
B----9--|       ---8------| 

INTERLUDE:
Couldn't really figure Guitar 2 [w/ wah]

Guitar 1
B--------------------|-------------------|--------------------
F#-------------------|-------------------|--------------------
E--[rest 4 measures]-|--7777777777777777-|--1111111111111111--
B--------------------|-------------------|--------------------
F#-------------------|--5555555555555555-|--9999999999999999--
B--------------------|-------------------|--------------------

B---------------------|----------------
F#--------------------|----------------
E---5555555555555555--|--8887778887----
B---------------------|----------------
F#--3333333333333333--|--6665556665----
B---------------------|----------------

BRIDGE AND OUTRO RIFF:
Guitar 1
B-----------------|-----------------
F#----------------|-----------------
E-----------------|-----------------
B-----------------|-----------------
F#----------------|-----------------
B--1-0-1-0--00--0-|-1-0-1-0--000----
            **  *            ***
Guitar 2
B-------------------|----------------
F#------------------|----------------
E-------------------|----------------
B---5-4-5-4---------|--5-4-5-4-------
F#------------------|----------------
B------------00--0--|-----------000--
             **  *              ***
            

Intro
Heavy Intro
Verse
Pre-Chorus
Chorus
2nd Intro
2nd Verse
2nd Pre-Chorus
2nd Chorus
Interlude
Bridge
3rd Chorus
Outro
Comments