Sevendust - Black Chords & Tabs

 

Black Chords & Tabs

Sevendust Chords & Tabs

Version: 1 Type: Bass Tab 0 ratings
1 star 2 stars 3 stars 4 stars 5 stars
comments

Black Bass Tab

   
Song:Black
Band:Sevendust
Album:self titled
This is Sevendust's best song in my opinion. Tune 1 and 1/2 steps low
(low to high:C#,F#,B,E) and play with a pick.   

Pre-Verse(after guitar intro):
|---------------|     |----------------|
|---------------|     |----------------|
|---------------|(x7) |----------------|
|007-07-07-07-07|     |007-07-07-07-000|

Verse:
|----------------------------------------------------------------------|
|----------------------------------------------------------------------|
|--3(let ring)---------------------------------------------------------|
|0--------------------------------------000-00-00-00-00-000-00-00-00-00|(x4)

Pre-Verse:
|--------------------------------|
|--------------------------------|
|--------------------------------|
|007-07-07-07-07-007-07-07-07-000|

Verse:
|----------------------------------------------------------------------|
|----------------------------------------------------------------------|
|--3(let ring)---------------------------------------------------------|
|0--------------------------------------000-00-00-00-00-000-00-00-00-00|(x2)

Going into chorus:                               (chorus begins...........)
|---------------------------------------------------|
|---------------------------------------------------|
|------------------------------------------------5-7|
|0(let ring)----------------------------5--5--5-----|

Chorus:
|------------------------------------------------------|
|------------------------------------------------------|
|7--7777--5-7--7--7777--2-3--3--3--3----------------5-7|(x2)
|-------------------------------------3-5--5--5--5-----|

Pre-Verse:
|--------------------------------|
|--------------------------------|
|--------------------------------|
|007-07-07-07-07-007-07-07-07-000|
[ Tab from: http://www.guitartabs.cc/tabs/s/sevendust/black_btab.html ]
Verse:
|-----------------------------------------------------------------------|
|-----------------------------------------------------------------------|
|--3(let ring)----------------------------------------------------------|
|0---------------------------------------000-00-00-00-00-000-00-00-00-00|(x4)

Going into chorus:                                            (chorus begins...)
|----------------------------------------------------------------|
|----------------------------------------------------------------|
|-------------------------------------------------------------5-7|
|0(let ring)-----------------------------------------5--5--5-----|

Chorus:
|------------------------------------------------------|
|------------------------------------------------------|
|7--7777--5-7--7--7777--2-3--3--3--3----------------5-7|
|-------------------------------------3-5--5--5--5-----|(x2)

Interlude:
|-------------------------------------------------|
|-------------------------------------------------|
|7--7777--5-7--7--7777--5-7--7--7777--5-7--7--7777|
|-------------------------------------------------|

Solo Backup:
|---------------|     |--------------------------------------------------------
|---------------|     |--------------------------------------------------------
|---------------|     |--3(let ring)-------------------------------------------
|000-00-00-00-00|(x4) |0----------------------------0(let ring)----------------

                        (chorus begins.........)   
---------------------------|
---------------------------|
------------------------5-7|
---------------5--5--5-----|

Chorus:
|------------------------------------------------------|
|------------------------------------------------------|
|7--7777--5-7--7--7777--2-3--3--3--3----------------5-7|
|-------------------------------------3-5--5--5--5-----|(x2)

Ending:
|---------------|     |------------------| |---------------|
|---------------|     |------------------| |---------------|
|---------------|     |------------------| |---------------|
|007-07-07-07-07|(x7) |007-07-07-0--0-0-0| |000-00-00-00-00|(repeat as song     
                                                             fades out)
Comments