Sevendust - Bitch Chords & Tabs

 

Bitch Chords & Tabs

Sevendust Chords & Tabs

Version: 1 Type: Tab 0 ratings
1 star 2 stars 3 stars 4 stars 5 stars
comments

Bitch Tab

   
BAND: Sevendust
SONG: Bitch
TABBED BY: Mike - BlueInferno_9890@hotmail.com
TUNING: standard tuning (E,A,D,G,B,E)


     INTRO: (play twice)

E|----------------------------------------------------------------|
B|----------------------------------------------------------------|
G|----------------------------------------------------------------|
D|--x--x--0----0--0-0--0-0--0-0-x--x--7----7--7-7--7-7--7-7-x--x--|
A|--x--x--0----0--0-0--0-0--0-0-x--x--7----7--7-7--7-7--7-7-x--x--|
E|----------------------------------------------------------------|
  
                                                Play first time   2nd
E|----------------------------------------|------------------|---|
B|----------------------------------------|------------------|---|
G|--5----5--5-5--5-5--5-5-x--x------------|------------------|---|
D|--5----5--5-5--5-5--5-5-x--x--5----5--5-|-5--5-5--5-5-x--x-|-4-|
A|------------------------------5----5--5-|-5--5-5--5-5-x--x-|-4-|
E|----------------------------------------|------------------|---|
[ Tab from: http://www.guitartabs.cc/tabs/s/sevendust/bitch_tab.html ]
     VERSE 1:
                        
E|-------------------------------------|
B|-------------------------------------|
G|-------------------------------------|
D|--9-10--9-10--9-10--9-10--9--3--2-2--|
A|--9-10--9-10--9-10--9-10--9--3--2-2--|
E|--7--8--7--8--7--8--7--8--7--1--0-0--|
                                 
     VERSE 2: (with octaver)

E|------------------------------|
B|------------------------------|
G|------------------------------|
D|--9-9-9-9-9--9-9--9-9--9-9-9--|
A|--9-9-9-9-9--9-9--9-9--9-9-9--|
E|--7-7-7-7-7--7-7--7-7--7-7-7--|
        pm........................

     VERSE 3: (with octaver)

E|-----------------------------|
B|-----------------------------|
G|-----------------------------|
D|--7-5-7-8--9-9--9-9-9-9-9-9--|
A|--7-5-7-8--9-9--9-9-9-9-9-9--|
E|-----------7-7--7-7-7-7-7-7--|
                 pm..............

     VERSE 4:

E|---------------------------|
B|---------------------------|
G|---------------------------|
D|--x-x-7-9--x-x-7-x-9-x-11--|
A|--x-x-7-9--x-x-7-x-9-x-11--|
E|--x-x-5-7--x-x-5-x-7-x-9---|

     BRIDGE:

E|------------------------|
B|------------------------| 
G|---------------------6--| 
D|---------------------6--| 
A|--x-x-x-x-x--x-x-x-x-4--|
E|------------------------|

     VERSE 5:

E|--------------------------------------| 
B|--------------------------------------| 
G|--------------------5-----------------| 
D|--0--------7--------5--------5--------| 
A|--0--------7-----------------5--------| 
E|--------------------------------------| 



Comments