Sevendust - Bitch Chords & Tabs

 

Bitch Chords & Tabs

Sevendust Chords & Tabs

Version: 1 Type: Bass Tab 0 ratings
1 star 2 stars 3 stars 4 stars 5 stars
comments

Bitch Bass Tab

   
          Sevendust
          bitch
          
          Tabbed by Matt Gates 
          
          fill 1 
          Gb|-------------------| |----------------|
          Db|-------------------| |----------------|
          Ab|-3/4-3/4-3/4-3-----| |-3/4-3/4-3/4-3^-|
          Db|---------------4-3-| |----------------|
          
          
          fill 2
          Gb|-------------------------|
          Db|-------------------------|
          Ab|-------------------------|
          Db|-0-0-0-0-1-0-0-0-0-1-0-1-|
          
          
          verse var 1
          var 2
          var 3
          Gb|---------------------------| |-------------------------| |-----------------------|
          Db|---------------------------| |-------------------------| |-----------------------|
          Ab|---------------------------| |-3/4-3/5-----------------| |-3/4-3/5-2-------------|
          Db|-0-0-0-0-3-0-1-0-1-0-1h2-0-| |---------0-1-0-1-0-1h2-0-| |-----------0-1-0-1h2-0-|
          
          
          durring intro riff
          Gb|----------------------------------------|
          Db|----------------------------------------|
          Ab|--------------------------0-5-5-5h7-----|
          Db|-2-2-0-2-2-2/9-9-9-9h11-9-----------5-7-|
          
          
          heavy fill
          Gb|-------------------------|--------------------|
          Db|-------------------------|--------------------|
          Ab|-----2-3-----2---3---3/4-|---------2-------2~-|
          Db|-0-0-----0-0---0---0-----|-0-0-0-0---0-0-0----|
          
          
          outro
          Gb|-----------------------------------------------------------------|
          Db|-----------------------------------------------------------------|
          Ab|-----------------1-1-1-1-1-1-1-1-3-3-3-3-3-3-3-3-----------------|
          Db|-0-0-0-0-0-0-0-0---------------------------------6-6-6-6-6-6-6-6-|
[ Tab from: http://www.guitartabs.cc/tabs/s/sevendust/bitch_btab.html ]
Comments