Sevendust - Animosity Chords & Tabs

 

Animosity Chords & Tabs

Sevendust Chords & Tabs

Version: 1 Type: Tab 0 ratings
1 star 2 stars 3 stars 4 stars 5 stars
comments

Animosity Tab

   
Band- Sevendust
Album- Animosity

Tracks:
1.T*** On A Boar
2.Praise
3.Trust
4.Crucified
5.XMas Day
6.Dead Set
7.Shine
8.Follow
9.Damaged
10.Live Again
11.Beautiful
12.Redefine
13.Angel's Son

1.T*** ON A BOAR

Intro: (notes marked w/ "1/2" means they are struck while bent up 1/2 step then
bent back normal.  example: as if played 5-4-4).
C#-------------------------------------------|
G#-------------------------------------------|
E----------------------;/--------------------| REPEAT  3X
B--------------------------------------------| ( ;/ IS A 32ND REST)
F#-------------------------------------------|
B--4-(4)-4---4-(4)-4-4---4-(4)-4---4(4)-4-4--|
   ^         ^           ^         ^
  1/2       1/2         1/2       1/2

C#----------------------0----------|
G#----------------------0----------|
E-----------------------6----------|
B----------------------------------|
F#---------------------------------|
B--4-(4)-4---4-(4)-4-------0-0-0-0-|
   ^         ^              p.m.
  1/2       1/2

Verse A section:
C#-----------------------------X/----|
G#--------------------------X/-------|
E------------------------X/----------|   REPEAT 3X
B---------------------X/-------------|
F#-----------------------------------|
B---X-X-X-X-X-X-X-X------------------|
    Guitar 1          Guitar 2
    w/ whammy         Pick scrape up neck

C#-------------------------------|
G#-------------------------------|
E-------------------------4---3--|   (*/ IS A 16TH REST)
B--------------------*/---2---1--|
F#------------------------2---1--|
B---X-X-X-X-X-X-X-X-------2---1--|
                        (slide down)

Verse B section:
C#------------------------------|
G#------------------------------|
E------------------------4---3--|   REPEAT 3X
B--------------------*/--2---1--|
F#-5-5-5-5-5-5-5-3-------2---1--|
B--5-5-5-5-5-5-5-3-------2---1--|
   p.m. - - - -|        (slide down)

C#--------------------------|
G#--------------------------|
E---------------------------|
B---------------------------|
F#-5-5-5-5-5-5--------------|
B--5-5-5-5-5-5--3---2---1---|
   p.m. - - - |

Pre-Chorus:
Low B--0-000-00-0-00-----
       p.m.

Chorus:
Play the "Intro." section 2X
At end of 2nd time around is:

C#--0-----------0-----------0-----|
G#--0-----------0-----------0-----|
E---6-----------6-----------6-----|
B---------------------------------|
F#--------------------------------|
B-----0-0-----0----0-0----0---0-0-|
All open B's are p.m.


2nd Verse: See 1st verse

2nd Chorus: See Previous chorus

Bridge:
Low B--0-0---0-0-0-0-0--0-0--- (you can gigure the rhythm)

Bridge "solo"
C#-----------------------------|-----------------------------|
G#--7-7---7-7-7-7-7-7-7--X-X-X-|-9-9---9-9-9-9-5-5-5--X-X-X--|
E------------------------X-X-X-|----------------------X-X-X--|
B---4-4---4-4-4-4-4-4-4--X-X-X-|-6-6---6-6-6-6-2-2-2--X-X-X--|
F#-----------------------------|-----------------------------|
B------------------------------|-----------------------------|

C#-----------------------------|----------------------------|
G#--7-7---7-7-7-7-7-7-7--X-X-X-|-9-9---9-9-9-9--12-12-12-12-|
E------------------------X-X-X-|----------------------------|
B---4-4---4-4-4-4-4-4-4--X-X-X-|-6-6---6-6-6-6--9--9--9--9--|
F#-----------------------------|----------------------------|
B------------------------------|----------------------------|


Verse 3: Play A section of previous verses.
3rd Verse B section:
C#----------------------------|
G#----------------------------|
E------------------4----------|
B--XX-XXX----------2--1-------| REPEAT 4X
F#-XX-XXX----------2--1-------|
B--XX-XXX---2--1---2--1-------|

3rd Chorus: See chorus. Plus don't finish
the last chorus bar w/ the fill, keep the rhythm going.

Outro: See "Bridge" (minus solo).

2.PRAISE

C#-----------------------------------------------------------------|
G#-----------------------------------------------------------------|
E------------------------------------------------------------------|
B---------------3---3-----------3---3-----------3---3--------------|
F#-------------------------------------------------------2---------|
B---0-2---2---2---2---2---2---2---2---2---2---2---2---2--2-0-2-0-2-|
                                                           pm

C#----------------------------------------------------------------|
G#----------------------------------------------------------------|
E-----------------------------------------------------------------|
B---------------3---3-----------3---3-----------3---3-------------|
F#--0-2-----------------------------------------------------------|
B---0-2---2---2---2---2---2---2---2---2---2---2---2---2---2-------|

fig 1.

C#-----------------------------------------------------------------|
G#-----------------------------------------------------------------|
E------------------------------------------------------------------|
B---------------3---3-----------3---3-----------3---3--------------|
F#--0-2---2---2-x-2-x-2---2---2-x-2-x-2---2---2-x-2-x-2--2-0-2-0-2-|
B---0-2---2---2-3-2-3-2---2---2-3-2-3-2---2---2-3-2-3-2--2-0-2-0-2-|
                                                         pm
verse 1

C#-----------------------------------------------------------------|
G#-----------------------------------------------------------------|
E------------------------------------------------------------------|
B---------------3---3-----------3---3-----------3---3--------------|
F#-----------------------------------------------------------------|
B---0-2---2---2---2---2---2---2---2---2---2---2---2---2--2-0-2-0-2-|

C#----------------------------------------------------------------|
G#----------------------------------------------------------------|
E-----------------------------------------------------------------|
B---------------3---3-----------3---3-----------3---3-------------|
F#----------------------------------------------------------------|
B---0-2---2---2---2---2---2---2---2---2---2---2---2---2---2-------|
2nd and 3rd verse

C#-----------------------------------------------------------------|
G#-----------------------------------------------------------------|
E--------------10--10----------10--10----------10--10--------------|
B------------------------------------------------------------------|
F#--------------8---8-----------8---8-----------8---8------0-2-0-2-|
B---0-2---2---2---2---2---2---2---2---2---2---2---2---2--2-0-2-0-2-|

pre chorus
gtr 3 w/ chorus and delay x2
C#----------------------------------------------------------------|
G#----------------------------------------------------------------|
E-------------------9----10-7-----------------------9-9-9-9-9-9-9-|
B-------------------x-----x-x-----------------------x-x-x-x-x-x-x-|
F#------------------7-----8-5-----------------------7-7-7-7-7-7-7-|
B-----------------------------------------------------------------|
gtr 2
C#----------------------------------------------------------------|
G#----------------------------------------------------------------|
E-----------------------------------------------------------------|
B-------------------8-8-8-8-------------------------8-8-8-8-8-8-8-|
F#--2-2-2-0-0-2-2-0-7-7-7-7-8-8-8-8-2-2-2-0-0-2-2-0-7-7-7-7-7-7-7-|
B---2-2-2-0-0-2-2-0---------8-8-8-8-2-2-2-0-0-2-2-0---------------|

C#----------------------------------------------------------------|
G#----------------------------------------------------------------|
E-----------------------------------------------------------------|
B-------------------8-8-8-8-------------------------8-8-8-8-8-8-8-|
F#--2-2-2-0-0-2-2-0-7-7-7-7-8-8-8-8-2-2-2-0-0-2-2-0-7-7-7-7-7-7-7-|
B---2-2-2-0-0-2-2-0-8-8-8-8-8-8-8-8-2-2-2-0-0-2-2-0-8-8-8-8-8-8-8-|

chorus x2 fig 3
C#-----------------------------------------------------------------|
G#-----------------------------------------------------------------|
E---------------------------9-9-7-9--------------------------------|
B---2-2-2-2-2-2-2-2-0-0-0-0-x-x-x-x-8-8-8-8-8-8-8-8-12121212121212-|
F#--2-2-2-2-2-2-2-2-0-0-0-0-7-7-5-7-8-8-8-8-8-8-8-8-10101010101010-|
B---2-2-2-2-2-2-2-2-0-0-0-0---------8-8-8-8-8-8-8-8-10101010101010-|
after chorus
C#----------------------------------------------------------------|
G#------------------------------------------5-5-6-6-6-6-5-5-------|
E-------------------7<<<<<<<<<<<<<<<<<<<<<<-----------------------|
B-----------------------------------------------------------------|
F#----------------------------------------------------------------|
B-----------------------------------------------------------------|
chorus before interlude fig 3 w.

C#--12-12-10-10-12-10-12-10-12-12-10-10-12-12-13-13----------------|
G#-----------------------------------------------------------------|
E------------------------------------------------------------------|
B------------------------------------------------------------------|
F#-----------------------------------------------------------------|
B------------------------------------------------------------------|

C#----------------------------------------------------------------|
G#----------------------------------------------------------------|
E-----------------------------------------------------------------|
B-----------------------------------------------------------------|
F#--2-2-2-0-0-2-2-0-----------------------------------------------|
B---2-2-2-0-0-2-2-0-----------------------------------------------|

interlude:
                                          first ending:
C#-----------------------------------------------------------------|
G#---------------------------------------------------15----15---15-|
E---13---------13----14----14-------16----13-----------------------|
B---12---------------12----12-------------12------------12----12---|
F#--11------11----11----12-------14----14-11------11---------------|
B------------------------------------------------------------------|
second ending

C#----------------------------------------------------------------|
G#----------------------------------------------------------------|
E---14\13-13----13/14----14/16----16----16----16------------------|
B---------12------------------------------------------------------|
F#--12\11----11-------12-------14----14----14----14---------------|
B-----------------------------------------------------0-2--2------|

outro chorus.: fig 3

C#----------------------------------------------------------------|
G#----------------------------------------------------------------|
E---1313131313131313-14141414-9-9-5-9-9-910101010-7-7-9-9-9-9-9-9-|
B-----------------------------------------------------------------|
F#--1111111111111111-12121212-7-7-5-7-7-7-8-8-8-8-5-5-7-7-7-7-7-7-|
B-----------------------------------------------------------------|

3.TRUST

Intro

          C#--------------------------------------------------------------------|
          G#-----0-----0-----0-----0-----0--0-----------------------------------|
          E ---------4-----2-----1-----1---------1h2h4--------------------------|
          B --------------------------------------------------------------------|
          F#--------------------------------------------------------------------|
          A#--0-----------------------------------------------------------------|

          C#-----------------------------------------------------------------|
          G#-----0-----0-----0-----0-----------------------------------------|
          E ---------4-----2-----1-------------------------------------------|
          B ----------------------------4------------------------------------|
          F#-----------------------------------------------------------------|
          A#--0--------------------------------------------------------------|

          Riff #1

          C#------------------------------------------------------------------|
          G#------------------------------------------------------------------|
          E ----------------------7------7--------7---------------------------|
          B ---------------11-------11-----11-------9-------------------------|
          F#------------------------------------------------------------------|
          A#--0--0--0---------------------------------------------------------|

          C#-------------------------------------------------------------------|
          G#-------------------------------------------------------------------|
          E -------------------6-----6-------6---------------------------------|
          B --------------9-------9-----7-------6------------------------------|
          F#-------------------------------------------------------------------|
          A#--0--0--0----------------------------------------------------------|  (x4)

          Verse #1

          C#-------------------------------------------------------------------|
          G# --------0---------------------------------------------------------|
          E ------6--6---------------------------------------------------------|
          B -------------------------------------------------------------------|
          F#--4----------------------------------------------------------------|
          A#-------------------------------------------------------------------|
	  (play at end of each phrase of the verse)

          C#------------------------------------------------------------------|
          G#------------------------------------------------------------------|
          E ------------------------------------------------------------------|
          B ------------------------------------------------------------------|
          F#------------------------------------------------------------------|
          A#--0-0-0-0-0-0----0-0-0-0-0----0-0-0-0-0-0----0-0-0-0-0------------|
                                      Trust!

          C#--------------------------------------------------------------------|
          G#--------------------------------------------------------------------|
          E  ----------------3--3--3-------------------3--3--3------------------|
          B  -------------------------------------------------------------------|
          F#-----------------5--5--5-------------------5--5--5------------------|
          A#--0-0-0-0-0-0--------------0-0-0-0-0----------------0-0-0-0-0-------|
                      harm|---------|            harm|--------------------------|

          C#-------------------------------------------------------------------|
          G#-------------------------------------------------------------------|
          E  -3--3--3----------------------------------------------------------|
          B  ------------------------------------------------------------------|
          F#--5--5--5----------------------------------------------------------|
          A#------------0-0-0-12/----------------------------------------------|
          harm|----------------------------------------------------------------|

          chorus

          C#--0----0--0---0----0--0--0--0------0----0--0--0--0--0--0--0-------|
          G#------------------------------------------------------------------|
          E  -2----2--2---4----4--4--4--4------4----4--4--4--4--4--4--4-------|
          B  -2----2--2---2----2--2--2--2------2----2--2--2--2--2--2--2-------|
          F#--0----0--0---0----0--0--0--0-------------------------------------|
          A#-----------------------------------0----0--0--0--0--0--0--0-------|


          C#--0----0--0----0---0--0--0--0-----0----0--0---0----0--0--0---0----------|
          G#------------------------------------------------------------------------|
          E --4----4--4----4---4--4--4--4-----6----6--6---6----6--6--6---6----------|
          B --6----6--6----6---6--6--6--6-----4----4--4---4----4--4--4---4----------|
          F#------------------------------------------------------------------------|
          A#--3----3--3----3----3--3--3--3----5----5--5---5----5--5--5---5----------|

          C#--0----0--0---0----0--0---0----0------0----0---0--0--0--0---0---0---------|
          G#--------------------------------------------------------------------------|
          E  -4----4--4---4----4--4---4----4------4----4---4--4--4--4---4---4---------|
          B  -4----4--4---4----4--4---4----4------2----2---2--2--2--2---2---2---------|
          F#--2----2--2---2----2--2---2----2------0----0---0--0--0--0---0---0---------|
          A#--------------------------------------------------------------------------|

          C#--0----0--0---0----0--0---0---0------0----0---0--0----0--0---0---0--------|
          G#--------------------------------------------------------------------------|
          E  -4----4--4---4----4--4---4---4------4----4---4--4----4--4---4---4--------|
          B  -6----6--6---6----6--6---6---6------6----6---6--6----6--6---6---6--------|
          F#--------------------------------------------------------------------------|
          A#--0----0--0---0----0--0---0---0------3----3---3--3----3--3---3---3--------|

          C#--0----0--0---0----0--0---0----0----0----0--0--0---0----0--0---0---0--------|
          G#----------------------------------------------------------------------------|
          E --6----6--6---6----6--6---6----6----6----6--6--6---6----6--6---6---6--------|
          B --4----4--4---4----4--4---4----4----4----4--4--4---4----4--4---4---4--------|
          F#----------------------------------------------------------------------------|
          A#--5----5--5---5----5--5---5----5----5----5--5--5---5----5--5---5---5--------|

          Verse #2

          C#-------------------------------------------------------------------|
          G# --------0---------------------------------------------------------|
          E ------6--6---------------------------------------------------------|
          B -------------------------------------------------------------------|
          F#--4----------------------------------------------------------------|
          A#-------------------------------------------------------------------|


          C#--------------------------------------------------------------------|
          G#--------------------------------------------------------------------|
          E --------------------------------------------------------------------|
          B --------------------------------------------------------------------|
          F#--------------------------------------------------------------------|
          A#--0-0-0-0-0-0-0-0-0-0-0-0-0-0-0-0--8-8-8-8-8-8-8-8-8-8-8-8-8-8-8-8--|  (start at "I still can't believe")

          C#--------------------------------------------------------------------|
          G#--------------------------------------------------------------------|
          E --------------------------------------------------------------------|
          B --------------------------------------------------------------------|
          F#--------------------------------------------------------------------|
          A#--6-6-6-6-6-6-6-6-6-6-6-6-6-6-6-6--5-5-5-5-5-5-5-5-5-5-5-5-5-5-5-5--|     (x2)

          C#------------------------------------------------------------------------|
          G#------------------------------------------------------------------------|
          E ------------------------------------------------------------------------|
          B ------------------------------------------------------------------------|
          F#--------------------------------------------------------------0-2-4--5--|
          A#--0-0-0-0-0-0----0-0-0-0-0-0--0-0-0-0-0-0----0-0-0-0--------------------|
                         Trust!
          C#--------------------------------------------------------------------------------|
          G#--------------------------------------------------------------------------------|
          E --------------------------------------------------------------------------------|
          B --------------------------------------------------------------------------------|
          F#----------------------------------------------------------------------0-2-4--5--|
          A#--0-0-0-0-0-0----0-0-0-0-0-0----0-0-0--0--0--0----0-0-0--0----------------------|

          C#------------------------------------------------------------------------------|
          G#------------------------------------------------------------------------------|
          E ------------------------------------------------------------------------------|
          B -----------------------3--3--3------------------------3--3--3-----------------|
          F#------------------------------------------------------------------------------|
          A#--0-0-0--0--0--0----------------0-0-0--0--0--0----------------0-0-0--0--0--0--|
                               harm|------|                   harm|-----------------------|
          C#------------------------------------------------------------------------------|
          G#------------------------------------------------------------------------------|
          E ------------------------------------------------------------------------------|
          B ----3--3--3-------------------------------------------------------------------|
          F#---------------------------------0-2-4--5-------------------------------------|
          A#---------------0--0--0----0------------------0-0-0--0--0--0-------------------|
           harm|--------------------------------------------------------------------------|

4.CRUCIFIED

-------------------------------------------------------------------------|
-------------------------------------------------------------------------|
-------------------------------------------------------------------------|
-------------------------------------------------------------------------|
-0p5h7-5---------0h3h5-3-----------0h5h7-5---------0h3h5-3-----1111------|
---------0000000---------00000000----------0000000---------000------3333-|

-------------------------------------------------------------------------------|
-------------------------------------------------------------------------------|
-------------------------------------------------------------------------------|
----------00000000---------00000000----------0000000----------000--------------|
-0h5h7----00000000-0h3h5-3-00000000--0h5h7-5-0000000--0h3h5-5-000-111----------|
----------00000000---------00000000----------0000000----------000------3333----|
          pm-----          pm------          pm--------------------------------|

--------------|-----------------------------------------------------------------|
--------------|-----------------------------------------------------------------|
-7b--7b-------|777777777---7777777777-1010101010-999----------------------------|
-x---x----0-0-|xxxxxxxxx---5555555555-xxxxxxxxx--xxx-7-8-11-12-11-8-5-7-8-7-4h54|
-5b--5b---0-0-|555555555---5555555555-888888888--777----------------------------|
----------0-0-|------------5555555555-------------------------------------------|
          pm-   chorus
------------------|------------------------------------------|----------------|
------------------|------------------------------------------|----------------|
------------------|-77777777-11111111-1212121212-1414141414--|-----------x--x-|
------------------|-xxxxxxxx-xxxxxxx--xxxxxxxxxx-xxxxxxxxxx--|-----------x--x-|
-5----5-----------|-55555555-9999999--1010101010-1212121212--|-----------x--x-|
----0-----00------|------------------------------------------|-1b0-1b0---x--x-|
  -guitar one-                        -guitar 2-

5.XMAS DAY

Intro*

(Backup Guitar) Play 2x
-----5--5-5-5-5-5-5--------3--5-5-5-5-5-|
---3----3-3-3-3-3-3------3-3--3-3-3-3-3-|
----------------------------------------|
----------------------------------------|
----------------------------------------|
-0---------------------0----------------|

(Lead Guitar) Play 2x
-------------------------------------------------|
-------------------------------------------------|
-------------------------------------------------|
-------------------------------------------------|
---5--4--5----------------------5--4--5----------|
-0----------5--7--8--7-8-----0-----------5--7--8-|

*Verse*

"One Step in the dark"
------------------------------------------------------------------------|
----3-----------3-------3-----------3-----------------------------------|
--3---------2-0-----2-----------2---------------------------4-----3-----|
----------------------------------3-------------3-----3---------3-----3-|
----------------------------------------------3-----3-----3---1---------|
--------------------------------------------1-----3-----5---------------|
5---------4-------------------3-----------------------------------------|


"But I promise.."
------------------------------------------------------------------|
---------3---------------------------------4----------------------|
-----3-0-----3------0-3-0--------------3-0------------------------|
-1-0------------------------5-------------------------------------|
----------------5-4----------------4-3----------------------------|
------------------------------------------------------------------|

"I could be.."
-----------------------------------------------------------------------|
-------3----3----------------------------3----3----------3-------------|
-----0----0-----------3-2---0-2--------0----0----------3-----3---------|
---5----------------0----------------5---------------0-----------------|
-6--------------6-5--------------5-6-----------------------------------|
---------------------------------------------------3-------------------|


*Chorus*


(The strumming isn't hard to figure out on the chorus)
------------------------------------------------------|
--7---------3----------3----------4-------------------|
--8---------2----------4----------5-------------------|
--5---------2----------4----------5-------------------|
--5---------0----------2----------3-------------------|
--5---------------------------------------------------|


*Same as Intro*


*Verse 2*

(Same as verse 1)

(Strumming similar to chorus right here)
----------------------------------------------------------|
-3-----3-----3--------------------------------------------|
-3-----2-----2-----3-----3-----3--------------------------|
-5-----4-----3-----3-----3-----3--------------------------|
-5-----4-----3-----1-----3-----5--------------------------|
-5-----4-----3--------------------------------------------|

-----------------------------------------------------------|
-4-----3---------------3---------------------------------4-|
-----3-------------3-0-----3------0-3-0--------------3-0---|
---1-----------1-0------------------------5----------------|
-----------------------------5-4----------------4-3--------|
-----------------------------------------------------------|

-------------------------------------------------------------------------|
-------3----3----------------------------3----3----------3---------------|
-----0----0-----------3-2---0-2--------0----0----------3-----3-----------|
---5----------------0----------------5---------------0-------------------|
-6--------------6-5--------------5-6-------------------------------------|
---------------------------------------------------3---------------------|

*Chorus*

--------------------------------------------------------------|
--7---------3----------3----------4---------------------------|
--8---------2----------4----------5---------------------------|
--5---------2----------4----------5---------------------------|
--5---------0----------2----------3---------------------------|
--5-----------------------------------------------------------|

                                                 "You mean everything"
----------------------------------------------------------------------|
--7---------3----------3----------4---------------------3~~~~~~~~~----|
--8---------2----------4----------3---------------------2~~~~~~~~~----|
--5---------2----------4----------5---------------------2~~~~~~~~~----|
--5---------0----------2----------3---------------------0~~~~~~~~~----|
--5-------------------------------------------------------------------|

*solo*

(With quiet distortion)
-------------------------------|
-------------------------------|
--------------7--------7-------|
---5-7-8-10-8-8-8-10-8-8-7-5-7-|
-5-----------------------------|
-------------------------------|

-------------------------------|
-------------------------------|
--------------7--------7---7-5-|
---5-7-8-10-8---8-10-8---8-----|
-5-----------------------------|
-------------------------------|

----------------------------------------------------|
----------------------------------------------------|
---12---11/12-12/14-15---15/1715---14-15-14-12-14---|
-0----0----------------0----------0-----------------|
----------------------------------------------------|
----------------------------------------------------|


                                             "I can break..."
--------------------------------------------------------------|
--------------------------------------------------------------|
---12/1412---11/12-12/14-14/15---15/17-1715-17-15-17/19-------|
-0----------0-------------------------------------------------|
--------------------------------------------------------------|
--------------------------------------------------------------|

*Play Chorus*

------------------------|
-3~~~~~~~~~-------------|
-2~~~~~~~~~-------------|
-2~~~~~~~~~-------------|
-0~~~~~~~~~-------------|
------------------------|

*Outro* (Beat slows down)
--------------------------------------------------|
------3-----3-------3-----3-------3-----3-------3-|
--3-0----0------2-0----2------2------2------------|
--------------------------------3-------------2---|
--------------------------------------------------|
-5------------4-------------3---------------2-----|

6.DEAD SET

INTRO:
Guiatr 1 [using wah]
C#--------0------------0-----------|----------0-----------0--------|
G#--------0------------0-----------|----------0-----------0--------|
E---------3------------3-----------|----------3-----------3--------|
B----------------------------------|-------------------------------|
F#---------------------------------|-------------------------------|
B--0--2-------2-2-2-2------0-2-0-2-|--2-2-2------2-2-2-2-----0-2-0-|

C#--------0------------0-----------|----------0-----------0----------|
G#--------0------------0-----------|----------0-----------0----------|
E---------3------------3-----------|----------3-----------3----------|
B----------------------------------|---------------------------------|
F#---------------------------------|---------------------------------|
B--0--2-------2-2-2-2------0-2-0-2-|--2-2-2------2-2-2-2-----0-0-0-0-|
                                                         p.m. - - - |

Guitar 2
C#------------------------------|---------------------------------|
G#------------------------------|---------------------------------|
E---------x-x-x-x---x--x---x-x--|--x-x-x---x--x---x-x-x-x---------|
B-------------------------------|---------------------------------|
F#------------------------------|---------------------------------|
B--0--2-------------------------|---------------------------0-2-0-|
                           pick scrape

C#------------------------------|-----------------------------------|
G#------------------------------|-----------------------------------|
E---------x-x-x-x---x--x---x-x--|--x-x-x---x--x---x-x-x-x-----------|
B-------------------------------|-----------------------------------|
F#------------------------------|-----------------------------------|
B--0--2-------------------------|---------------------------0-0-0-0-|
                           pick scrape                 p.m. - - - |

HEAVY INTRO:
Guitars 1 & 2
C#--------0----------------------|--------0-------------------|
G#--------0----------------------|--------0-------------------|
E---------3----------------------|--------3-------------------|
B--------------------------------|----------------------------|
F#-------------------------------|----------------------------|
B--0--2-------2-2-2-2----0-2-0-2-|--2-2------2-2-2-2----0-2-0-|

C#--------0----------------------|--------0-----------0----------|
G#--------0----------------------|--------0-----------0----------|
E---------3----------------------|--------3-----------3----------|
B--------------------------------|-------------------------------|
F#-------------------------------|-------------------------------|
B--0--2-------2-2-2-2----0-2-0-2-|--2-2------2-2-2-2-----0-0-0-0-|
                                                     p.m. - - - |
[ Tab from: http://www.guitartabs.cc/tabs/s/sevendust/animosity_tab.html ]
VERSE: [2x]
Guiatrs 1 & 2
C#--------------------------------------------------------------------|
G#--------------------------------------------------------------------|
E---------------------------------------------------------------------|
B---------------------------------------------------------------------|
F#--7-7-7-5-5-5-7-7-7-8-8-8-5-7-5--5-7-5------------------------------|
B-----------------------------------------6-6-6-6-6-6-6-0-0-0-0-2-2-0-|
p.m. - - - - - - - - - - - |            p.m. - - - - - - - - |

C#-------------------------------------------------------------------|
G#-------------------------------------------------------------------|
E--------------------------------------------------------------------|
B--------------------------------------------------------------------|
F#---------------------------------------5-5-5-5-5-5-5-7-7-7-7-5-5-5-|
B--2-2-2-0-0-0-2-2-2-3-3-3-0-2-0--0-2-0------------------------------|
 p.m. - - - - - - - - - - |            p.m. - - - - - - - - - - - - |

B Section:
Guitar 1
C#-----------------------------------------------------------------|
G#-----------------------------------------------------------------|
E--7-7-x-x-x-x-7-7-x-x-x-x-7-7-x-x-x-x-7-7-x-x-x-x-7-9-9-9-9-7-7-7-|
B------------------------------------------------------------------|
F#-5-5-x-x-x-x-5-5-x-x-x-x-5-5-x-x-x-x-5-5-x-x-x-x-5-7-7-7-7-5-5-5-|
B------------------------------------------------------------------|
  "Omce I say                I can't be saved..."

C#-----------------------------------------------------------|
G#-----------------------------------------------------------|
E--7-7-x-x-x-x-7-7-x-x-x-x-7-7-x-x-x-x-7-7-x-x-x-x-7-9-9-9-9-|
B------------------------------------------------------------|
F#-5-5-x-x-x-x-5-5-x-x-x-x-5-5-x-x-x-x-5-5-x-x-x-x-5-7-7-7-7-|
B------------------------------------------------------------|

Guitar 2
Play 1st half of "verse" riff 2x

PRE-CHORUS:
(This pasrt is pretty layered so here's the main feel)
C#----------------------------------|----------------------------------|
G#----------------------------------|----------------------------------|
E--12-------------------------------|-12-------------------------------|
B--10-/-/-/-/---/-/-/-/-/-/--/--/-/-|-11-/-/-/-/---/-/-/-/-/-/--/--/-/-|
F#-10-------------------------------|-11-------------------------------|
B--10-------------------------------|-11-------------------------------|
             "One single life            needs not to die..."

C#----------------------------------|---------------------------------|
G#----------------------------------|---------------------------------|
E---7-------------------------------|-7-------------------------------|
B-----/-/-/-/---/-/-/-/-/-/--/--/-/-|---/-/-/-/---/-/-/-/-/-/--/--/-/-|
F#--5-------------------------------|-5-------------------------------|
B---5-------------------------------|-0-------------------------------|

C#--------------------------------|   -------------------------------|
G#--------------------------------|   -------------------------------|
E---11-12-9-9--9-9-9-9-9-9-9--9-9-|   7-7-7-7-7--7-7-7-7-7-7-7--7-7--|
B--------------------------------[2x] -------------------------------|
F#--9-10-7--7--7-7-7-7-7-7-7--7-7-|   5-5-5-5-5--5-5-5-5-5-5-5--5-5--|
B---------------------------------|   -------------------------------|

C#--------------------------|
G#--------------------------|
E---7-9-5--5--5-5-5-5-5-7-5-|
B---------------------------|
F#--5-7-3--3--3-3-3-3-3-5-3-|
B---------------------------|

CHORUS:
Guitars 1 & 2 play "heavy intro" riff

2ND VERSE (w/o a "B Section")

2ND PRE-CHORUS

3RD CHORUS

BRIDGE:
Guitar 1 solo
(it plays variations with the root notes of the verse riff
up on the neck using a wah)

Guitar 2
C#------------------------     -------------------|
G#------------------------     -------------------|
E-------------------------[6x] -------------------|[2x]
B-------------------------     -------------------|
F#------------------------     -2---0---2---3-3-3-|
B--2-2-2-0-0-0-2-2-2-3--0-     -2---0---2---3-3-3-|
 p.m. - - - - - - - - |

C#------------------------     -------------------|
G#------------------------     -------------------|
E-------------------------[4x] -------------------|[2x]
B-------------------------     -------------------|
F#------------------------     -2--0--2--3--x-2-0-|
B--2-2-2-0-0-0-2-2-2-3--0-     -2--0--2--3--x-2-0-|
 p.m. - - - - - - - - |

#------------------------------|
G#-----------------------------|
E------------------------------|
B------------------------------|
F#-2--2-0--0-2---3-3-3-2-0-0-0-|
B--2--2-0--0-2---3-3-3-2-0-0-0-|
  Let chords ring

3RD PRE-CHORUS
C#--------------------------------|--------------------------------|
G#--------------------------------|--------------------------------|
E---9-9-9-9-9--9-9-9-9-9-9-9--9-9-|-12-----------------------------|
B---------------------------------|----/-/-/-/--/-/-/-/-/-/-/--/-/-|
F#--7-7-7-7-7--7-7-7-7-7-7-7--7-7-|-10-----------------------------|
B---------------------------------|--------------------------------|

C#--------------------------------|---------------------------------|
G#--------------------------------|---------------------------------|
E---12-11-------------------------|-11------------------------------|
B---------/--/-/-/-/-/-/-/--/-/---|----/-/-/-/--/-/-/-/-/-/-/--/-/--|
F#--10-9--------------------------|-9-------------------------------|
B---------------------------------|---------------------------------|

C#---------------------------------|---------------------------------|
G#---------------------------------|---------------------------------|
E---11-12-9------------------------|-9-11-7--------------------7-9-7-|
B-----------/-/--/-/-/-/-/-/-/--/--|--------/--/--/-/-/-/-/-/--------|
F#--9--10-7------------------------|-7--9-5--------------------5-7-5-|
B----------------------------------|---------------------------------|

Section before last Chorus:
Guitars 1 & 2
B--0--2----2-2-2-2-----0-2-0-2-|--2-2-----2-2-2-2-----0-2-0---

B--0--2----2-2-2-2-----0-2-0-2-|--2-2-----2-2-2-2-----0-0-0-0-
                                                  p.m. - - - |
FINAL CHORUS

7.SHINE

Intro with weird effect                 Repeat 4x

  ---------------------------------------------------|
  ---------------------------------------------------|
  --------------6-------4-4-------4-4----------------|
  -0-0-0-0-0-0----0-0-0-----0-0-0-----0-0-0----------|
  ---------------------------------------------------|
  ---------------------------------------------------|

 Guitar 2 eventually goes into this:

  -----------------------------------------------|
  -----------------------------------------------|
  --6-----------4-4---------4-4------------------|
  --x----0-0-0--x-x--0-0-0--x-x--0-0-0-----------|
  --4----0-0-0--2-2--0-0-0--2-2--0-0-0-----------|
  -------0-0-0-------0-0-0-------0-0-0-----------|
          PM          PM          PM

 Heavy Part / Verse

  --------------------------------------------------------|
  --------------------------------------------------------|
  ------------------6-----------4-4-----------4-4---------|
  0-0---0-0---0-0---x---0-0-0---x-x---0-0-0---x-x---0-0-0-|
  0-0---0-0---0-0---4---0-0-0---2-2---0-0-0---2-2---0-0-0-|
  0-0---0-0---0-0-------0-0-0---------0-0-0---------0-0-0-|
         PM               PM            PM            PM

 Pre Chorus

                Repeat 2x   then....

  ----------------------------------|-----------------------------------|
  ----------------------------------|-----------------------------------|
  ---13---11---10---11----14-14-14--|--14-14-14-14-14-14-14-14----------|
  ----x----x----x----x-----x--x--x--|---x--x--x--x--x--x--x--x----------|
  ---11----9----8----9----12-12-12--|--12-12-12-12-12-12-12-12----------|
  (0)---(0)--(0)--(0)--(0)----------|-----------------------------------|


 Chorus

  (strumming pattern isn't correct so improvise)

  -----------------------------------------------------------------|
  -----------------------------------------------------------------|
  9-9-9-9-9-9-9-9-9-9-9-11-11-11-11-11-11-11-11-11-11-11---6-6/8-8-|
  7-7-7-7-7-7-7-7-7-7-7--9--9--9--9--9--9--9--9--9--9--9---x-x/x-x-|
  7-7-7-7-7-7-7-7-7-7-7--9--9--9--9--9--9--9--9--9--9--9---4-4/6-6-|
  7-7-7-7-7-7-7-7-7-7-7--9--9--9--9--9--9--9--9--9--9--9-----------|

 Post chorus-Strumming pattern isn't correct here either


  -------------------------------------------------------|
  -------------------------------------------------------|
  11-11-11-11-11-11-11-11--10-10-10-10-10-10-10-10-10----|
  -x--x--x--x--x--x--x--x---x--x--x--x--x--x--x--x--x----|
  -9--9--9--9--9--9--9--9---8--8--8--8--8--8--8--8--8----|
  -------------------------------------------------------|

  -------------------------------------------------------|
  -------------------------------------------------------|
  11-11-11-11-11-11-11-11--13---11-11---10-10-10-\-6-6---|
  -x--x--x--x--x--x--x--x---x----x--x----x--x--x-\-x-x---|
  -9--9--9--9--9--9--9--9--11----9--9----8--8--8-\-4-4---|
  -------------------------------------------------------|

 Intro riff
 Verse
 Pre-Chorus
 Chorus
 Post-Chorus

 Then......

  ------------------------------------------------------|
  --------------------------------------------------9*--|
  --------------------------7*------------9*------9*----|
  ----------------------------9*------------------------|
  ------------------------------------------------------|
  0-0-0-0-0-0-0-0-0-0-0-0-0-------0-0-0-0----0-0--------|
                PM                   PM       PM

  -----------------------------------------------------|
  -----------------------------------------------------|
  --------------------------7*-----7*------------------|
  -----------------------------------9*----------------|
  -----------------------------------------------------|
  0-0-0-0-0-0-0-0-0-0-0-0-0----0-0---------------------|
              PM                PM

  --------------------|
  --------------------|
  --------------------|
  0^4--x-x-x-x--0^4---|
  0^2--x-x-x-x--0^2---|
  -----x-x-x-x--------|
      Repeat 4x

  ----------------------------|
  ----------------------------|
  ----------------------------|
  0-0---0-0---0-0-0---0-0-----|
  0-0---0-0---0-0-0---0-0-----|
  0-0---0-0---0-0-0---0-0-----|
         PM            PM


      Then....     2x

  ---------------------------------------------------------|
  ---------------------------------------------------------|
  ------------------------7*------------------------7*--9--|
  12/--------0-0---0-0------9*-9*--0-0----0-0---0-0---9*---|
  12/--------0-0---0-0-------------0-0----0-0---0-0--------|
  12/--------0-0---0-0-------------0-0----0-0---0-0--------|
                    PM              PM           PM

  Chorus
  Post-Chorus


  --------------------------------------------|
  --------------------------------------------|
  --------------------------------------------|
  0-0---0-0---0-0---0-0-----------12\---------|
  0-0---0-0---0-0---0-0-----------12\---------|
  0-0---0-0---0-0---0-0-----------12\---------|
         PM          PM

  ---------------------------------------------|
  ---------------------------------------------|
  -----------7*------------------------7*--9*--|
  -------------9*-9*---------------------9*----|       2x
  0-0---0-0----------0-0-0---0-0----0-0--------|
  0-0---0-0----------0-0-0---0-0----0-0--------|
         PM           PM             PM

  ------------------------------|
  ------------------------------|
  ------------------------------|
  0-0---0-0---0-0---------------|
  0-0---0-0---0-0---------------|
  0-0---0-0---0-0---------------|
         PM

8.FOLLOW

INTRO
GUITAR 1 (Clean) HOLD THROUGHOUT
B  :------2---------2------2--------------5-------------------------------|
F# :---------0---------0----------0--8-------8----------------------------|
B  :--4----------4-------------4------------------4-----------------------|
E  :----------------------------------------------------------------------|
G# :----------------------------------------------------------------------|
C# :----------------------------------------------------------------------|

GUITAR 2 (w/ Modulation Effect)
B  :--------------------------------------------------------12-------------|
F# :----12-/-14---12-/-14---12-/-14---12-/-14------------------------------|
B  :-----------------------------------------------------------------------|
E  :-----------------------------------------------------------------------|
G# :-----------------------------------------------------------------------|
C# :-----------------------------------------------------------------------|

GUITAR 1
B  :---2------------------------2----------------0------------------------|
F# :------------5--------------------0--------------0---------------------|
B  :-------4------4--4--4---------------4---2-----------------------------|
E  :----------------------------------------------------------------------|
G# :----------------------------------------------------------------------|
C# :----------------------------------------------------------------------|

9.DAMAGED

  Riff 1:
    C#|----------------------|
    G#|----------------------|
    E |----------------------| tremlo pick each note
    B |----------------------|
    F#|----------------------|
    B |-6----7----1----2-----|

     Riff 2:
    C#|----------------------|
    G#|----------------------|
    E |----------------------| tremlo pick each note
    B |----------------------|
    F#|----------------------|
    B |-6----7----1----0-----|

     Riff 3:
    C#|-------------------------------|
    G#|-------------------------------|
    E |-------------------------------| PM=palm mute
    B |-0--0-0-0-0---0-0-0-0--0-0-0-0-|
    F#|-0--0-0-0-0---0-0-0-0--0-0-0-0-|
    B |-0--0-0-0-0---0-0-0-0--0-0-0-0-|
     PM          -         -        -

     Riff 4:
    C#|------------------------|
    G#|------------------------|
    E |-6----/9----/11---\9----| tremlo pick each note
    B |-x----/x----/x----\x----| / or \=slide
    F#|-4----/7----/9----\7----|
    B |------------------------|

     Riff 5: (solo)
    C#|----------------------------------|
    G#|----------------------------------|
    E |----------------------------------| (x)=played last time only
    B |----------------------------------|
    F#|-3----4--6----4-6-7--9--11--/(14)-|
    B |----------------------------------|

     Riff 6: (end on)
    C#|---|
    G#|---|
    E |-6-|
    B |-x-|
    F#|-4-|
    B |---|

10.LIVE AGAIN

Intro: Fig 1.

b-----------------------------------------------------------------|
f-----------------------------------------------------------------|
e-----------------------------------------------------------------|
b-----0-0---x-x-x-------x-x-x-------x-0-0---x-x-x-0-0---------2~~-|
f-----0-0---x-x-x-0-0---x-x-x-------x-0-0---x-x-x-0-0---0-3p0-----|
b-----0-0---x-x-x-0-0---x-x-x-------x-0-0---x-x-x-0-0-------------|

b-----------------------------------------------------------------|
f-----------------------------------------------------------------|
e-----------------------------------------------------------------|
b-----0-0---x-x-x-------x-x-x-------x-0-0---x-x-x-0-0-------------|
f-----0-0---x-x-x-0-0---x-x-x-------x-0-0---x-x-x-0-0---3h5p3h5---|
b-----0-0---x-x-x-0-0---x-x-x-------x-0-0---x-x-x-0-0-------------|

Verses: Riff A x2

b-----------------------------------------------------------------|
f-----------------------------------------------------------------|
e-15------------13-------------------14------10-----9---------17--|
b--x-------------x--------------------x-------x-----x----------x--|
f-13------------10-------------------12-------8-----7---------15--|
b-----------------------------------------------------------------|

then

Gtr 1. x2

b-----------------------------------------------------------------|
f-----------------------------------------------------------------|
e-15------------13-------------------14------10-----9---------17--|
b--x-------------x--------------------x-------x-----x----------x--|
f-13------------10-------------------12-------8-----7---------15--|
b-----------------------------------------------------------------|

Gtr 2. x2

b-----------------------------------------------------------------|
f-----------------------------------------------------------------|
e-/10~~~~~~~~~~--9-------------------9/10~~~~~~~~~~~7----------9--|
b-----------------------------------------------------------------|
f-----------------------------------------------------------------|
b-----------------------------------------------------------------|

Pre Chorus:

x2
b-----------------------------------------------------------------|
f-----------------------------------------------------------------|
e---10---10~~~~---10-----5---5---9---9----------------------------|
b-----------------------------------------------------------------|
f-----------------------------------------------------------------|
b-8----8-------8-------3---3---7---7------------------------------|

then
b-----------------------------------------------------------------|
f-----------------------------------------------------------------|
e---7---7~~~~~---7------5---5~~~~~~-------------------------------|
b-----------------------------------------------------------------|
f-----------------------------------------------------------------|
b-5---5--------5---5--7---7---------------------------------------|

Chorus:

b-----------------------------------------------------------------|
f-----------------------------------------------------------------|
e---7---7~~~~-----7------7---6~~~~----6--7------------------------|
b-0---0-------0---------------------------------------------------|
f-----------------------------------------------------------------|
b----------------------7---7-------7------------------------------|

b-----------------------------------------------------------------|
f-----------------------------------------------------------------|
e---7---7~~~~-----7------5---5---3---3----------------------------|
b-----------------------------------------------------------------|
f-----------------------------------------------------------------|
b-8---8-------8--------3---3---5---5------------------------------|

Mini Outro Solo:

b------19------19------15-17-19------19------19----19br--17-------|
f------17------17-------------------------------------------------|
e-----------------------------------------------------------------|
b-----------------------------------------------------------------|
f-----------------------------------------------------------------|
b-----------------------------------------------------------------|

b------19------19------15-17-15--17/19--19-----19~~~~~~~-17---17--|
f------17------17-------------------------------------------------|
e-----------------------------------------------------------------|
b-----------------------------------------------------------------|
f-----------------------------------------------------------------|
b-----------------------------------------------------------------|

Free Time: Tapped harmonics

b-----------------------------------------------------------------|
f-----------------------------------------------------------------|
e-------7(14)--7(14)-----7(14)-5(12)-----7(14)-5(12)~-----7(14)---|
b-0(12)-------------0(12)-----------0(12)------------0(12)--------|
f-----------------------------------------------------------------|
b-----------------------------------------------------------------|

b------------------------------------------------------------------|
f------------------------------------------------------------------|
e------7(14)-------------------------------------------------------|
b-0(12)------------------------------------------------------------|
f------------------------------------------------------------------|
b------------------------------------------------------------------|
ran outta room

11.BEAUTIFUL


C#|--(7x)---------------------------------------|
G#|-13-15------8-10-------(7x)------------------|
E |-----------------------5-7-------------------|
B |--------0---------0--------------------------|
F#|---------------------------------------------|
B |---------------------------------------------|

     Main/Verse riff...play B5 in sync with bass drum
C#|-----------------------------------------------------|
G#|-----------------------------------------------------|
E |-----------------------------------------------------|
B |-0-0-0---0-0-0--0-0-0-----0h3-0-0-0-0-0-0------------|
F#|-0-0-0---0-0-0--0-0-0--3h5----0-0-0-0-0-0----3h5 3h5-|
B |-0-0-0---0-0-0--0-0-0-0-------0-0-0-0-0-0--0---------|


                    Chorus
C#|------------------------------------------------|
G#|------------------------------------------------|
E |-7---7----5--5----3------------------7--5---3---|
B |-5---5----3--3----1----0---7---8-----5--3---1---|
F#|-5---5----3--3----1----0---7---8-----5--3---1---|
B |-5---5----3--3----1----0---7---8-----5--3---1---|

12.REDEFINE

Intro Riff
|----------------------------------------------------------|
|----------------------------------------------------------|
|----------------------------------------------------------|
|----------------------------------------------------------|
|----------------------------------------------------------|
|------------9-9-(9-10)--\-7------9-9-9-10-9---------------|x 2
      PM...................................

Riff 1

|-----------------------------------------------------19-------|
|-----------------------------------------------------19-------|
|---11--11-----[-11--11--11--11-]-----11--11-------------------|
|---11--11-----[-11--11--11--11-]-----11--11-------------------|x8
|----9---9-----[--9---9---9---9-]------9---9-------------------|
|----9---9-----[--9---9---9---9-]------9---9-------------------|
     D  D        D  U    D    U        D   D

              (above strummed fast)

[Interlude] During Bass riff
|--------------------------------------------------------|
|--------------------------------------------------------|
|--------------------------------------------------------|
|--------------------------------------------------------|x4
|-2~-------2\~-------------------------------------------|
|--------------------------------------------------------|
  slide down slightly

[Chorus
|--------------------------------------------------------|
|--------------------------------------------------------|
|------11------------------------------------------------|x1 (first time)
|------11-----5-----3-----2---3--------------------------|
|-------9-----5-----3-----2---3--------------------------|
|-------9-----5-----3-----2---3--------------------------|

13.ANGELS SON

Intro:grt.1 (acous.)
  *D7                             F6               Gsus4
-|--------0--------------0-------|--------0----------------0--------|
-|--------0--------------0-------|--------0----------------0--------|
-|-----------5-------5-------5---|------------5--------5-------5----|
-|----0--------------------------|----0----------------0-------0----|
-|-3-----------3h5---------------|----------------------------------|
-|-------------------------------|-3---------------5----------------|
  *chords refleact implied harmony

  Ab(#4)
-|---------0------0-------0-------|---------0-------0-------0--------|
-|---------0------0-------0-------|---------0-------0-------0--------|
-|-----5------5-------5-------5---|-----5-------5-------5-------5----|
-|-----0------0-------------------|---------------------0------------|
-|--------------------------------|----------------------------------|
-|-6------------------------------|-6--------------------------------|

  gtr.2 (elec.) w/clean tone,tremolo & octaver
  D7                   F6                   Csus2           Ab(#4)
-|--------------------|--------------------|------------------|--------------|
-|-2------------------|--------------------|-0----------------|--------------|
-|--------------------|--------------------|------------------|-1------------|
-|--------------------|-3------------------|------------------|--------------|
-|--------------------|--------------------|------------------|--------------|
-|--------------------|--------------------|------------------|--------------|
 |                                                                          |
 |                                                                end intro |
-|------0---------0---|------0---------0---|------0---0---0---|-0------------|
-|------0---------0---|------0---------0---|------0---0---0---|-0------------|
-|----5---5-----5---5-|----5---5-----5---5-|----5---5---5---5-|-5------------|
-|--------------------|----0---------0-----|------------0---x-|-0------------|
-|--------------------|--------------------|-3--------------0-|-x------------|
-|-0---------0--------|-3---------3--------|----------------6-|-6------------|

  Riff A:gtr.2 tremolo off
  D7                              D7/F#                    hold bend
-|-------10101010----9-----7-----|-------7-7-7-7-----5-----7b-(8)--|
-|-------------------------------|---------------------------------|
-|-------------------------------|---------------------------------|
-|-------------------------------|---------------------------------|
-|-------------------------------|---------------------------------|
-|-------------------------------|---------------------------------|
 |                                                                |
 | gtr.1                                                               |
-|-------0-0-0-0---0-0-0-0-0-0-0-|-------0-0-0-0---0-0-0-0-0-0--0--|
-|-------0-0-0-0---0-0-0-0-0-0-0-|-------0-0-0-0---0-0-0-0-0-0--0--|
-|-------5-5-5-5---5-4-4-4-2-2-2-|-------2-2-2-2---2-0-0-0-2-2--3--|
-|-------------------------------|---------------------------------|
-|-0--0--------------------------|-5--5----------------------------|
-|-0--0--------------------------|-4--4----------------------------|

  hold bend.....
  Gm11                             D7/F#               end Riff A
-|-(8)---7-7-7-7-r-7-7------5-----|-------7-7-7-7-----5-----4------|
-|--------------------------------|--------------------------------|
-|--------------------------------|--------------------------------|
-|--------------------------------|--------------------------------|
-|--------------------------------|--------------------------------|
-|--------------------------------|--------------------------------|
 |                                                                |
 |                                                                |
-|-------0-0-0-0---0-0-0--0-0-0-0-|-------0-0-0-0---0-0-0-0-0-0-0--|
-|-------0-0-0-0---0-0-0--0-0-0-0-|-------0-0-0-0---0-0-0-0-0-0-0--|
-|-------3-3-3-3---3-3-3--5-3-3-3-|-------2-2-2-2---2-0-0-0-x-x-0--|
-|--------------------------------|-------------------------4-4----|
-|-5--5---------------------------|-5--5---------------------------|
-|-5--5---------------------------|-4--4---------------------------|

  Pre chorus: gtr.1
  D7
-|-0--0--0-0---0--0-0--0-0--|-0--0---0-4--4-4-4-4-4--4-4---|
-|-0--0--0-0---0--0-0--0-0--|-0--0---0-0--0-0-0-0-0--0-0---|
-|-2--2--2-2---2--2-2--2-2--|-2--2---2-2--2-2-2-2-2--2-2---|
-|-0--0--0-0---0--0-0--0-0--|-0--0---0-0--0-0-0-0-0--0-0---|
-|-0--0--0-0---0--0-0--0-0--|-0--0---0-0--0-0-0-0-0--0-0---|
-|-0--0--0-0---0--0-0--0-0--|-0--0---0-0--0-0-0-0-0--0-0---|

  D7/F#                        Gm11
-|-0--0---0-0---0--0-0-0-0-0--|-0--0---0-0---0--0-0-0-0-0---|
-|-0--0---0-0---0--0-0-0-0-0--|-0--0---0-0---0--0-0-0-0-0---|
-|-2--2---2-2---2--2-2-2-2-2--|-3--3---3-3---3--3-3-3-3-3---|
-|-0--0---0-0---0--0-0-0-0-0--|-0--0---0-0---0--0-0-0-0-0---|
-|-x--x---x-x---x--x-x-x-x-x--|-x--x---x-x---x--x-x-x-x-x---|
-|-4--4---4-4---4--4-4-4-4-4--|-5--5---5-5---5--5-5-5-5-5---|

  D7
-|-0--0--0-0---0--0-0--0-0--|-0--0---0-4---4-4-4-4-4--4-4---|
-|-0--0--0-0---0--0-0--0-0--|-0--0---0-0---0-0-0-0-0--0-0---|
-|-2--2--2-2---2--2-2--2-2--|-2--2---2-2---2-2-2-2-2--2-2---|
-|-0--0--0-0---0--0-0--0-0--|-0--0---0-0---0-0-0-0-0--0-0---|
-|-0--0--0-0---0--0-0--0-0--|-0--0---0-0---0-0-0-0-0--0-0---|
-|-0--0--0-0---0--0-0--0-0--|-0--0---0-0---0-0-0-0-0--0-0---|

  D7/F#7                    Gm11
-|-0--0--0-0--0-0-0-0-0-0--|-0--0---0-0---0--0--0--|-0-0--0-0-0-0-0-0-----|
-|-0--0--0-0--0-0-0-0-0-0--|-0--0---0-0---0--0--0--|-0-0--0-0-0-0-0-0-----|
-|-2--2--2-2--2-2-2-2-2-2--|-3--3---3-3---3--3--3--|-3-3--3-3-3-3-3-3-----|
-|-0--0--0-0--0-0-0-0-0-0--|-0--0---0-0---0--0--0--|-0-0--0-0-0-0-0-0-----|
-|-x--x--x-x--x-x-x-x-x-x--|-x--x---x-x---x--x--x--|-x-x--x-x-x-x-x-x-----|
-|-4--4--4-4--4-4-4-4-4-4--|-5--5---5-5---5--5--5--|-5-5--5-5-5-5-5-5-0---|

  Chorus:
  D7                                           Dsus4
-|-0----0----0--0----0---0--0--0--|-0----0-----0----0----0----x---|
-|-0----0----0--0----0---0--0--0--|-0----0-----0----0----0----x---|
-|-11---11---11-11---11--11-11-11-|-11---11----12---12---12---10--|
-|-x----x----x--x----x---x--x--x--|-x----x-----x----x----x----x---|
-|-9----9----9--9----9---9--9--9--|-9----9-----10---10---10---8---|
-|-0----0----0--0----0---0--0--0--|-0----0-----0----0----0----x---|

  Bbadd9
-|-0---0--0----0--0----0---0--0--0--0--|-0--0--0---0--0---0--0---0--0--0------|
-|-0---0--0----0--0----0---0--0--0--0--|-0--0--0---0--0---0--0---0--0--0------|
-|-10--10-10---10-10---10--10-10-10-10-|-10-10-10--10-10--10-10--10-10-10-----|
-|-8---8--8----8--8----8---8--8--8--8--|-8--8--8---8--8---8--8---8--8--8------|
-|-8---8--8----8--8----8---8--8--8--8--|-8--8--8---8--8---8--8---8--8--8------|
-|-8---8--8----8--8----8---8--8--8--8--|-8--8--8---8--8---8--8---8--8--8--5-4-|

 gtr.2
  D7/F#                      Gm11
-|----7---------------------|-----8-----------------------|
-|-7------------------------|-7---------7-----------------|
-|--------------------------|-----------------------------|
-|--------------------------|-----------------------------|
-|--------------------------|-----------------------------|
-|--------------------------|-----------------------------|
 |                                                       |
 |                                                       |
-|-0--0--0---0--0-0-0-0-0-0-|-0---0---0-0---0--0-0-0-0-0--|
-|-0--0--0---0--0-0-0-0-0-0-|-0---0---0-0---0--0-0-0-0-0--|
-|-2--2--2---2--2-2-2-2-2-2-|-3---3---3-3---3--3-3-3-3-3--|
-|-0--0--0---0--0-0-0-0-0-0-|-0---0---0-0---0--0-0-0-0-0--|
-|-x--x--x---x--x-x-x-x-x-x-|-x---x---x-x---x--x-x-x-x-x--|
-|-4--4--4---4--4-4-4-4-4-4-|-5---5---5-5---5--5-5-5-5-5--|

  D7/F#                        Gm11
-|-----7-----7--10--------7---|-----------------------|
-|-7------------------7-------|--7--------------------|
-|----------------------------|-----------------------|
-|----------------------------|-----------------------|
-|----------------------------|-----------------------|
-|----------------------------|-----------------------|
 |                                                   |
 |                                                   |
-|-0---0---0-0---0--0-0-0-0-0-|--0--------------------|
-|-0---0---0-0---0--0-0-0-0-0-|--0--------------------|
-|-2---2---2-2---2--2-2-2-2-2-|--3--------------------|
-|-0---0---0-0---0--0-0-0-0-0-|--0--------------------|
-|-x---x---x-x---x--x-x-x-x-x-|--x--------------------|
-|-4---4---4-4---4--4-4-4-4-4-|--5--------------------|

  Outro: gtr.1
  D7                             F6             Gsus4
-|--------0--------------0------|---------0---------------0-------|
-|--------0---0----------0------|---------0---------------0-------|
-|------------5--------------5--|-------------5---------------5---|
-|----0---------------0---------|-----0---------------0-----------|
-|-3------------3h5-------------|---------------------------------|
-|------------------------------|-3-------------3h5---------------|

  Ab(#4)
-|-------0---0---0---|-0---0---0---0---|-0-----------------|
-|---------0---------|---0---0---0---0-|---0---------------|
-|-----5-------5---5-|-----------------|-----5-------------|
-|-------------------|-----------------|-------------------|
-|-------------------|-----------------|-------------------|
-|-6-----------------|-----------------|-------------------|
Comments