Sevendust - Angels Son Chords & Tabs

 

Angels Son Chords & Tabs

Sevendust Chords & Tabs

Version: 6 Type: Tab 0 ratings
1 star 2 stars 3 stars 4 stars 5 stars
comments

Angels Son Tab

  Angels Son by Sevendust...

 I haven't seen any tabs for this song's intro that are worth a damn so
I decided to make one.

 The tuning for this song is dropped a ton, but the song sounds o.k. w/ standard
tuning.  

INTRO:

---0---0---0---0---0-0-0---0-0-0---0---0---0---0---0-0-0--0
--3-3-3-3-3-3-3-3-3-3-3-3-3-3-3-3-3-3-3-3-3-3-3-3-3-3-3-3-3
----------------------------------------------------------0
-2---0----------------------------------------------------0
-------------0---1-------1---------------0-------1--------1
---------3-----------------------0------------------------x
[ Tab from: http://www.guitartabs.cc/tabs/s/sevendust/angels_son_tab_ver_6.html ]
If you care or not I also noticed that the first part of Riff 1 is always wrong
also so here it is.

Riff 1:

---------0-----0---0---------------------------
-----2h3---2h3---2---0---------0-----0---------
---------------------------2h4---2h4-----4-4/5-
-----------------------------------------------
-2-2-------------------------------------------
-0-0-------------------4-4---------------------

     If you look at other tabs for the rest of the song they are usually pretty
close.  But I'm positive that this is right because I figured it out myself.  And
even if it's not 100% it's a hell of a lot more right than any other tab.

Listen to the song for tempo, don't e-mail me corrections because I don't care.
Comments