Sevendust - Angels Son Chords & Tabs

 

Angels Son Chords & Tabs

Sevendust Chords & Tabs

Version: 4 Type: Tab 0 ratings
1 star 2 stars 3 stars 4 stars 5 stars
comments

Angels Son Tab

#----------------------------------PLEASE NOTE--------------------------------#
#This file is the author's own work and represents their interpretation of the#
#song. You may only use this file for private study, scholarship, or research.#
#-----------------------------------------------------------------------------#
#-- File created with Instab - http://www.pconline.com/~smcarey/instab.html --#
#-----------------------------------------------------------------------------#

Author/Artist: Sevendust
Title: Angels Son
Album: Animosity
Transcribed by: Sean Wall
Email: Tengaspasser@prodigy.net

This has got to be close!

Tuning -  Down 1 1/2 steps - C#F#BEG#C#

Please send any comments you may have, I want feedback!

-----0-------0-------0-------0-------0---0---0-------0---0---0--|-------------
---3---3---3---3---3---3---3---3---3---3---3---3---3---3---3---3|-------------
----------------------------------------------------------------|-------------
-0-------2------------------------------------------------------|-------------
-------------------------0-------1---------------1--------------|-------------
-----------------3----------------------------------------------|-------------
 Intro                                                                        
[ Tab from: http://www.guitartabs.cc/tabs/s/sevendust/angels_son_tab_ver_4.html ]
-----0-----0-------0-----0-------0---0---0---0|-------------------------------
---3---3-3---3---3---3-3---3---3---3---3---3-3|-------------------------------
---------------------------------------------3|-------------------------------
-----------------------------0---------------2|-------------------------------
---------------------------------------------1|-------------------------------
-0-------------3------------------------------|-------------------------------
                                                                              

-----0---0---0---0---0-----0-0---0---0-----0-----0-0---0-----0---0-----0-0----
-----2h3---3---2---0-------0-0---0---0-----0-----1---1---1h3---1-------0-0----
---------------------------4---4---2---4h5---2-2-----------------------4---4--
-2-2-------------------2-2-------------------2-2-------------------2-2--------
-2-2-------------------2-2-------------------0-0-------------------2-2--------
-0-0-------------------4-4-------------------x-x-------------------4-4--------
 Verse                                                                        

-0---0---0-|------------------------------------------------------------------
-0---0---0-|------------------------------------------------------------------
---2---1---|------------------------------------------------------------------
-----------|------------------------------------------------------------------
-----------|------------------------------------------------------------------
-----------|------------------------------------------------------------------
                                                                              

-0-----0----0-----0----0------------------------------------------------------
-3-----0----0-----1----0------------------------------------------------------
-2-----1----1-----2----2------------------------------------------------------
-0-----2----0-----2----2------------------------------------------------------
-------2----2-----0----0------------------------------------------------------
-------0----4-----------------------------------------------------------------
 These are the main chords, hope this works out!                              

Comments