Sevendust - Angels Son Chords & Tabs

 

Angels Son Chords & Tabs

Sevendust Chords & Tabs

Version: 3 Type: Tab 0 ratings
1 star 2 stars 3 stars 4 stars 5 stars
comments

Angels Son Tab

This song dominates, to say the least.  i dont know the complete intro, but this is 
close to right, if not right.
[ Tab from: http://www.guitartabs.cc/tabs/s/sevendust/angels_son_tab_ver_3.html ]
d------0-0-0-0--0--0----------0-0-0-0--0-0--------0-0-0-0--0-0-----------
c------0-0-0-0--0--0----------0-0-0-0--0-0--------0-0-0-0--0-0-----------
g------5-5-5-5--4--2----------2-2-2-2--0-2h3------3-3-3-3--5-3h0---------
d-0-0--------------------------------------------------------------------
a-0-0--------------------5----------------------5------------------------
d-0-0--------------------4----------------------5------------------------

d----0-0-0-0--0--0-------------------------------------------------------
c----0-0-0-0--0--0-------------------------------------------------------
g----2-2-2-2--0----------------------------------------------------------
d----------------4-------------------------------------------------------
a--5---------------------------------------------------------------------
d--4---------------------------------------------------------------------

Comments