Sevendust - Angels Son Chords & Tabs

 

Angels Son Chords & Tabs

Sevendust Chords & Tabs

Version: 2 Type: Tab 0 ratings
1 star 2 stars 3 stars 4 stars 5 stars
comments

Angels Son Tab

This is the real Tab for Angel's Son, It is a little harder than the others but is the best.
Any queries, e-mail me at phoenix187a@hotmail.com.

Entire song in Drop D tuning
[ Tab from: http://www.guitartabs.cc/tabs/s/sevendust/angels_son_tab_ver_2.html ]
             INTRO PART 
E------------------------------------------------------------------------------------------------------------------------------------------0------------
B------0---2---0--------0---2---0-------0---2---0-------0---2---0-------0--2--0--2--0--2--0------0--2--0--2--0--2--0----2------------------------
G--4-----------------6--------------------------------------------------------------------------------------------------------------------0------------
D---------------------------------------2----------------4-----------------5------------------------------5------------------------------5-------------
A-------------------------------------------------------------------------------------------------------------------------------------------------------
E-------------------------------------------------------------------------------------------------------------------------------------------------------

           MAIN SECTION VERSE
E---------------------0--------0------0-----0--------------0------0---------0---------0-------------------0----0---------0---------0---------------0-----0-----0-----0--
B------------------0---------0------0-----0--------------0------0---------0---------0-------------------0----0---------0---------0---------------0-----0-----0-----0---
G----------------------------------------------------------------------------------------------------------------------------------------------------------------------------------
D------------10---------10------9-----7--------------7------7------7s5-----5s7----------------7s8----8----8s10---10s8---------------7-----7------5----4-----
A-----------------------------------------------------------------------------------------------------------------------------------------------------------------------------------
E----0--0----------------------------------------0--0-----------------------------------------0--0-----------------------------------------0--0------------------------------
Comments