Sevendust - Angels Son Chords & Tabs

 

Angels Son Chords & Tabs

Sevendust Chords & Tabs

Version: 1 Type: Tab 0 ratings
1 star 2 stars 3 stars 4 stars 5 stars
comments

Angels Son Tab

   
Sevendust - Angel's Son


TUNING: Alt. Open D
Low To High - D A D G C D


/- Slide
h-Hammer on
p-Pull Off


Intro:
|------0-------0-------0-------0-------0---0---0-------0---0---0-------0-------|
|--------0-------0-------0-------0-------0---0---0-------0---0---0-------0-----|
|------------------------------------------------------------------------------|
|----0-------0-------0-------0-------0---------------0---------------0---------|
|--3-------3-------------------------------------------------------------------|
|------------------3-------5-------6---------------6---------------0-----------|

|--0-------0-------0-------0---0---0----0------|
|----0-------0-------0-------0---0---0--0------|
|---------------------------------------5------|
|---------0---------------0-------------0------|
|-----------------------3---------------0------|
|--------3------------------------------6------|
[ Tab from: http://www.guitartabs.cc/tabs/s/sevendust/angels_son_tab.html ]
Verse:
   ~top strings played throughout(cept when noted)
|--0~-----------------------------------------------------------------
|--0~-------------------------------------------------------------
|---------/5-5-4-2---------2-2-0-2-2/3--------3-3-3h5p3-----2-2-2-0----------------
|--0--0----0-0-0-0---0-0---0-0-0-0-0-----0-0--0-0-0-0-0--0--0-0-0-0-4-------
|--0--0----0-0-0-0---x-x---0-0-0-0-0-----x-x--0-0-0-0-0--x--0-0-0-0-0----------
|--0--0----0-0-0-0---4-4---0-0-0-0-0-----5-5--0-0-0-0-0--4--0-0-0-0-0------------


Pre-Chorus:
|-----0-----0-----0-----0------|
|-----0-----0-----0-----0------|
|-----5-----7-----2-----3------|
|-----x-----x-----0-----0------|
|-----3-----5-----3-----5------|
|-----0-----0-----4-----5------|:REPEAT
You Were Fighting...........

Chorus
|----0----------0-----|
|----0----------0-----|
|----11---------10----|
|----10---------10----|
|----9----------8-----|
|----0----------8-----|:REPEAT
One Last Song...........

Outro:
|------0--------0-----0-----0---0----|
|------0--0-----0-----0-----0-0-0----|
|-------------------------------10---|
|----0--------0-----0-----0-----10---|
|--3--------5-----7-----9-------8----|
|-------------------------------8----|


Tabbed By: Gus Lemos 
From:Animosity and Performance Video from "Late Night w/ Jay Leno"
I know it's not perfect but what do you think?
GusSpam00@yahoo.com
Comments